» » »

Absolution Tabs (ver.1)

Artists:  A B C D E F G H I J K L M N O P Q R S T U V W X Y Z # 

Absolution Tabs (ver.1)

Washya
Rating:
0/5 (0 votes)

Hard to play? Try these video lessons and learn fast.
                -----------------------------------------------------------------------------
-----------------------------------------------------------------------------
Tuning: Drop C (DAFCGC)
Intro
D|-------------------------------------------------------------|
A|-------------------------------------------------------------|
F|-10-10----------10-10----------------10-----------10----10---|
C|---------10-10----------10-10-----10----10-----10----10-10---|
G|-------8--------------8-------8-8----------8-8----------8----|
C|--------------------------------------------------------8----|
pm .. .. . .. ..  .. .. . .. .. . . .. .. .. . . .. .. ..

Verses
D|---------------------------------------------|
A|---------------------------------------------|
F|---------------------------------------------|
C|----5----------------------------------------|
G|-/7---7-6-5---5------------------------------|
C|------------7---7-6-5-3-000-3*-000-3*-000-3*-|
pm                        ...    ...    ...

Chorus
D|-------------------------------------------------------------------|
A|-------------------------------------------------------------------|
F|-------------------------------------------------------------------|
C|-12-12-12-12-10-10-10-10-11-11-11-11-9-9-9-9-5-5-5-5-1-1-1-1-0-1h2-|
G|-12-12-12-12-10-10-10-10-11-11-11-11-9-9-9-9-5-5-5-5-1-1-1-1-0-1h2-|
C|-12-12-12-12-10-10-10-10-11-11-11-11-9-9-9-9-5-5-5-5-1-1-1-1-0-1h2-|
            
Hard to play? Try these video lessons and learn fast. | Correct




comments powered by Disqus
↑ Back to top | Tablatures and chords are parodies/interpretations of the original songs. You may use it for private study, scholarship, research or language learning purposes only