» » »

Washya, 90 Seconds Of Terror Tabs (ver.1)

Artists:  A B C D E F G H I J K L M N O P Q R S T U V W X Y Z # 

90 Seconds Of Terror Tabs (ver.1)

Washya Tabs
Rating:
0/5 (0 votes)
90 Seconds Of Terror lessons Tabs too difficult? Try these video lessons and learn fast
                -----------------------------------------------------------------------------
-----------------------------------------------------------------------------
Tuning: D Tuning (DAFCGD)
Intro
D|----------------------------------------------------|
A|----------------------------------------------------|
F|----------------------------------------------------|
C|----------------------------------------------------|
G|-----7-345-----7-345-----7-345-----7-345-----888777-|
D|-000-5-123-000-5-123-000-5-123-000-5-123-000-666555-|
PM ***       ***       ***       ***       *** 

Verses
D|--------------------------------------------------------|
A|--------------------------------------------------------|
F|--------------------------------------------------------|
C|--------------------------------------------------------|
G|-----------------------------------------------5\44\333-|
D|-0-5-3-0-3-5-6-5-3-0-3-5-0-5-3-0-6-5-3-0-3-5-0-3\22\111-|
PM * * * * * * * * * * * * * * * * * * * * * * * 

Part Before Chorus
D|-----------------------------------------------------------------------|
A|-----------------------------------------------------------------------|
F|-----------------------------------------------------------------------|
C|-----------------------------------------------------------------------|
G|-----------------1-3-4-5-1-3-4-5-----------------3-5-6-7-3-5-6-7-7-6-5-|
D|-1-3-4-5-1-3-4-5-----------------3-5-6-7-3-5-6-7-----------------5-4-3-|
PM * * * * * * * * * * * * * * * * * * * * * * * * * * * * * * * * 

Chorus
D|--------------------------------------------------------------------0---|
A|----------------------------------------------------------------------0-|
F|------------------------------------------------------------------------|
C|-------2-3p2---------2-4b--------------------2-4-4b-2-------------------|
G|-------------4-2-2-4------6-5-3-5-6-7----2-4----------3p2p3-5-4-3-2-----|
C|-0-2-4--------------------------3-4-5--0--------------------3-2-1-0-----|
PM *                        * * *        *              
            
Submit corrections

comments powered by Disqus
↑ Back to top | Washya Tabs for 90 Seconds Of Terror. Lyrics for acoustic guitar and electric guitar. Tablatures and chords are parodies/interpretations of the original songs. You may use it for private study, scholarship, research or language learning purposes only