» » »

247 Tabs (ver.1)

Artists:  A B C D E F G H I J K L M N O P Q R S T U V W X Y Z # 

247 Tabs (ver.1)

Washya
Rating:
0/5 (0 votes)

Hard to play? Try these video lessons and learn fast.
                -----------------------------------------------------------------------------
                                 24/7 - Washya
-----------------------------------------------------------------------------
Tuning: Standard (ebgdae)
Intro
E|-----------------------------------------------------|
B|-----------------------------------------------------|
G|---0h5-0h3h5-----------------------------------------|
D|---0h5-0h3h5---------555-----1-----1-----1-----------|
A|-2-----------0h3h5p0-333-2-2---0-2---0-2---0h2h3p2-2-|
E|-0-----------------------0-------------------------0-|

Verses
E|---0---0---1---0---2-----2-|
B|-0---1---0---3---3---2h3-3-|
G|-------------------------2-|
D|---------------------------|
A|---------------------------|
E|---------------------------|

Chorus
E|--------------------------------------------------------------------------|
B|--------------------------------------------------------------------------|
G|--------------------------------------------------------------------------|
D|-------6-5-3---------------4h6p4----------------------8h10-10-----6-------|
A|-2-222-------5-6-5-3-333/4-------6-7p6p4-666/8-8h9h11------8--9-8---987-2-|
E|-0-000---------------111/6---------------444/6----------------------765-0-|
PM   ***               ***                 ***                        *** 

Solo (slow, play twice)
E|--------------------------------------------------------------------|
B|-----------------------------------77----77----77-------------------|
G|-9-9~-9-7-9~-9-7-------------------77----77----77-9~-9-7-6----------|
D|-----------------10-9-7---------9b----9b----9b-------------9--------|
A|------------------------10-8-7-------------------------------8-7----|
E|-------------------------------9---------------------------------5~-|
            
Hard to play? Try these video lessons and learn fast. | Correct




comments powered by Disqus
↑ Back to top | Tablatures and chords are parodies/interpretations of the original songs. You may use it for private study, scholarship, research or language learning purposes only