>
 >
I Believe You Liar

I Believe You Liar Guitar Tabs

Washington - I Believe You Liar chords, tabs, tablatures, lyrics

Guitar lessons | Add/correct | Request | Top 50 tabs Artists:  A B C D E F G H I J K L M N O P Q R S T U V W X Y Z 0-9

I Believe You Liar Guitar Tabs – Washington

CD, Sheet music, Poster

Do you like I Believe You Liar? Share with your friends now
Tabs
I BELIEVE YOU, LIAR by
MEGAN WASHINGTON from the LP
I BELIEVE YOU LIAR

Transposed for Guitar.

CHORDS USED:
  B    A6   F#m   G#m   Eb    E   Eb7   F#   C#
|------------2-----4----------0---------2------------------------|
|-4----------2-----4----------0----6----2----6-------------------|
|-4----2-----2-----5-----8----1----8----3----6-------------------|
|-4----4-----4-----6-----8----2----8----4----6-------------------|
|-2----0-----4-----6-----6----2----6----4----4-------------------|
|------------2-----4----------0---------2------------------------|

RIFF:
|--5--4-2-----------------------------|
|---------2-4-------------------------|
|-------------2--------2---1----------|
|----------------------------4---1----|
|------------------------------4---2--|
|-------------------------------------|


Intro:
B             B A6     x2

B                                            A6
All the things you've said and things you've done
B                     A6
I remember, in memoriam
F#m                                 G#
You said that you did, but you did not  
Eb                                     E       
Oh, you ache for something God knows what

B                            A6   (riff)
I sing every song I've ever sung
B                                 A6  
F#                           C#
And full of hope and electricity
Eb            Eb7           G#
Now I let you make a man of me

A
What can I do?
A
What can I do?
A
What can I do?
             E
Now I am on fire

I believe you
I believe you
I believe you
I believe you, liar

SOLO:
|--5--4-2--------4--2-0-------5---4-2--------4---2-0--------|
|---------2--4----------2-------------2--4-----------2------|
|-----------------------------------------------------------|
|-----------------------------------------------------------|
|-----------------------------------------------------------|
|-----------------------------------------------------------|

|--5--4-2--------4--2-0-------5----4-2--------4--2-0--------|
|---------2--4----------2--------------2-4------------2-4---|
|------------------------------------------2--------------2-|
|-----------------------------------------------------------|
|-----------------------------------------------------------|
|-----------------------------------------------------------|

A
What can I do?
A
What can I do?
A
What can I do?
             E
Now I am on fire


It's a work in progress, please comment if you have any suggestions/corrections.





Comments


Popular Washington tabs & chords
Holy Moses Chords
Lover Soldier Chords
Spanish Temper Chords
Sunday Best Chords
Underground Chords
Walking Man Chords
Aftermath Ukulele
Holy Moses Ukulele
Underground Ukulele
Walking Man Ukulele


Song lyrics



↑ Back to top | Tablatures and chords are parodies/interpretations of the original songs. You may use it for private study, scholarship, research or language learning purposes only
© 2014 AZChords.com Contact us | Privacy policy | DMCA | Add/correct tabs | Request tabs | Top 50 tabs