» » »

Wash, Like It Is Flow Bass tabs (ver.1)

Artists:  A B C D E F G H I J K L M N O P Q R S T U V W X Y Z # 

Like It Is Flow Bass tabs (ver.1)

Wash Tabs
 Rating:
4/5 (4 votes)
Like It Is Flow lessons Tabs too difficult? Try these video lessons and learn fast
1
                -----------------------------------------------------------------------------
			     WASH - Like It Is (Flow)
-----------------------------------------------------------------------------



Tuning: Drop D, (DADG)


This song goes as follows:
Drums start it off with some weird effect.
Guitar starts with backing effects, then the ‘Intro/Verse riff’ (see my guitar tab for song).
Then together with the drums, plays this: (listen to song for correct timing)


Intro riff
G|------------------------------------|--------------------------|
D|------------------------------------|--------------------------|
A|------------------------------------|--------------------------|
D|-0-0--------0--------0-0--------0-0-|---0-0-0-0-0-0-0-0-0/10\0-|



Chorus riff 1
G|------------------------------------|
D|------------------------------------|
A|------------------------------------|
D|-10---0--10-0---10----0--0-10-11-12-|




Chorus riff 2
G|---------------------------|
D|---------------------------|
A|---------------------------|
D|-8--8-8-x-7-x-5--5-5-x-7-x-|



Fill 1
G|-----------------------------|
D|-----------------------------|
A|-----------------------------|
D|-10---0--10-0-0--3-3-3-3-4-4-|




Fill 2
G|---------|
D|---------|
A|---------|
D|-2---2---|




Ending
G|-------------|
D|-------------|
A|-------------|
D|-5-5-5-5-7-7-|



SONG STRUCTURE

Intro riff (1x)
Chorus riff 1 (16x)
*-pause, with the drums only-*
Chorus riff 2 (4x)
Chorus riff 1 (3x)
Fill 1 (1x)
Chorus riff 1 (4x)
*-quick freeze (the bit where it goes, “they’re just so hip...hop”-*
Chorus riff 1 (4x)
*-the pause with the trippy drum bit again-*
Chorus riff 2 (8x)
-guitar plays-
Intro (1x)
Fill 2 (1x)
Chorus riff 2 (12x)
Ending (1x)


Key:

x = muted note
/ = slide up
\ = slide down
            
Submit corrections

comments powered by Disqus
↑ Back to top | Wash Bass for Like It Is Flow. Lyrics for acoustic guitar and electric guitar. 1 Tablatures and chords are parodies/interpretations of the original songs. You may use it for private study, scholarship, research or language learning purposes only