» » »

Wash, Drug 05 Mix Bass tabs (ver.1)

Artists:  A B C D E F G H I J K L M N O P Q R S T U V W X Y Z # 

Drug 05 Mix Bass tabs (ver.1)

Wash Tabs
 Rating:
4/5 (4 votes)
Drug 05 Mix lessons Tabs too difficult? Try these video lessons and learn fast
                



Intro
G|---------------|
D|---------------|
A|------------2--|
E|---------------|
  1 & 2 & 3 & 4 & 

Verse
G|---------------|
D|---------------|
A|------1-----2--|
E|0--------------|
  1 & 2 & 3 & 4 & 

Post-Verse
G|---------------|---------------|
D|---------------|---------------|
A|---------------|---------------|
E|0co------------|---------------|
  1 & 2 & 3 & 4 & 1 & 2 & 3 & 4 & 

Chorus
G|---------------|
D|---------------|
A|----------1-1-1|
E|0-0---3--------|
  1 & 2 & 3 & 4 & 

Outro
G|---------------|
D|---------------|
A|------------2--|
E|0--------------|
  1 & 2 & 3 & 4 & 

Post-Outro
G|---------------|
D|---------------|
A|---------------|
E|0--------------| (hold the E note for one bar and fade out)
  1 & 2 & 3 & 4 & 



SONG STRUCTURE
(Drum beat for first 8 bars)
Intro
Verse 12x
Post-Verse
Chorus 8x
Verse 12x
Post-Verse
Chorus 16x
(Intrumental bridge by guitarist for 1 bar)
Chorus x16
Outro x10
Post-Outro
            
Submit corrections

comments powered by Disqus
↑ Back to top | Wash Bass for Drug 05 Mix. Lyrics for acoustic guitar and electric guitar. Tablatures and chords are parodies/interpretations of the original songs. You may use it for private study, scholarship, research or language learning purposes only