» » »

Poor Poor Pitiful Me Tabs (ver.1)

Artists:  A B C D E F G H I J K L M N O P Q R S T U V W X Y Z # 

Poor Poor Pitiful Me Tabs (ver.1)

Warren Zevon
Rating:
0/5 (0 votes)

Tabs too difficult? Try these video lessons and learn fast.
                Hey this is part of poor poor pitiful me by Warren Zevon its my first post so hope it
okay.   Also this is on a six string, I don't own a 12 so it might be different i dont
 This isnt the whole song I know there are other parts inbetween these two section but i 
feel like tabbing them out.

Tuning: Open G (DGDGBD)
Capo: 3

e|--0---0--0--0--0--0---x2-------------------------------------------------------------|
B|--3---3--3--3--3--3------------------------------------------------------------------|
G|--2---3--2--3--5--0------------------------------------------------------------------|
D|--0---0--0--0--0--0------------------------------------------------------------------|
A|--0---0--0--0--0--0------------------------------------------------------------------|
E|--0---0--0--0--0--0------------------------------------------------------------------|

e|--0--0--0----------0--0--0---0--0--0--0--0--0--0----0----|
B|--1--1--3----------3--3--3---3--3--5--5--3--0--3----3----|
G|--0--0--0---0h2p0--2--2--3---2--0--0--0--0--0--2h3--2h3--|
D|--0--0--0----------0--0--0---0--0--0--0--0--0--0----0----|
A|--0--0--0----------0--0--0---0--0--0--0--0--0--0----0----|
E|--0--0--0----------0--0--0---0--0--0--0--0--0--0----0----|

The Strumming is a steady up and down obviously I didnt write in all the strums.  Also
mess around with the first section of tab and see if you can't come up with some other
 Hope you like it

===============================================================================
            
Tabs too difficult? Try these video lessons and learn fast.




comments powered by Disqus
↑ Back to top | Tablatures and chords are parodies/interpretations of the original songs. You may use it for private study, scholarship, research or language learning purposes only