» » »

Warren Zevon, Lawyers Guns And Money Tabs (ver.1)

Artists:  A B C D E F G H I J K L M N O P Q R S T U V W X Y Z # 

Lawyers Guns And Money Tabs (ver.1)

Warren Zevon Tabs
Rating:
0/5 (0 votes)
Lawyers Guns And Money lessons Tabs too difficult? Try these video lessons and learn fast
                ----------------------------------------------------------------------------
----------------------------------------------------------------------------

Tuning: Standard (EADGBE)

On this tribute album, the song Lawyers, Guns, And Money is played
than Warren's original version, but it's still got the same feel as
the classic. Enjoy, and please rate!


Guitar 1
e|------------------------------------|
B|------------------------------------|
G|--7--77-6-77--7/6--6/7-77-6-4-------|
D|--7--77-6-77--7/6--6/7-77-6-4-------|
A|--5--55-4-55--5/4--4/5-55-4-2-------|
E|------------------------------------|
Guitar 1                               Guitar 2 (Fill)
e|------------------------------------||---------|
B|------------------------------------||---------|
G|--7--77-6-77--7/6--6/7-77-9-9-------||---------|
D|--7--77-6-77--7/6--6/7-77-9-9-------||----7~---|
A|--5--55-4-55--5/4--4/5-55-7-7-------||-7h9-----|
E|------------------------------------||---------|
Guitar 1                               Guitar 2 (Fill)
e|------------------------------------||---------|
B|------------------------------------||---------|
G|--7--77-6-77--7/6--6/7-77-6-4~------||---------|
D|--7--77-6-77--7/6--6/7-77-6-4~------||----7~---|
A|--5--55-4-55--5/4--4/5-55-4-2~------||-7h9-----|
E|------------------------------------||---------|


VERSE 1: "I went home with a waitress"
Guitar 1                         Both Guitars:  Guitar 1 again: 
e|-----------------------------||-------------||--------------------------|
B|-----------------------------||-------------||--------------------------|
G|-----------------------------||--7-77-6-----||---------6-7-6------------|
D|--7-7/6---x6/7-4-6/7-77-6----||--7-77-6--7--||-7-7/6---6-7-6-x7-77-6----|
A|--5-5/4-7-x4/5-2-4/5-55-4-7--||--5-55-4--7--||-5-5/4-7-4-5-4-x5-55-4-7--|
E|--------5-----------------5--||----------5--||-------5---------------5--|

MAIN RIFF:
Guitar 1 (Lead)                             Guitar 2 (Fill)
e|----------------------------------------||----------|
B|----------------------------------------||----------|
G|--7--77-6-77--7/6--6/7-77-6-4-----------||----------|
D|--7--77-6-77--7/6--6/7-77-6-4-----------||-----7~---|
A|--5--55-4-55--5/4--4/5-55-4-2-----------||--7h9-----|
E|----------------------------------------||----------|

e|----------------------------------------|
B|----------------------------------------|
G|--7--77-6-77--7/6--6/7-77-9-9-----------|
D|--7--77-6-77--7/6--6/7-77-9-9-----------|
A|--5--55-4-55--5/4--4/5-55-7-7-----------|
E|----------------------------------------|

VERSE 2: "I was gambling in Havanna"
Guitar 1:    Guitar 2 (Fill)    Guitar 1      Both Guitars:
e|----------|------------------|-------------|-------------|
B|----------|-10/12-12/10-10/9-|-------------|-------------|
G|----------|------------------|-------------|-7-77-6------|
D|---7x-----|------------------|-7-77/6------|-7-77-6-7----|
A|---5x-7---|------------------|-5-55/4-7----|-5-55-4-7----|
E|------5---|------------------|--------5----|--------5----|
"Send Lawyers, Guns, and Money"
e|------------------------|
B|------------------------|
G|-------6-7-6------------|
D|-7~----6-7-6--777-6-----|
A|-5~----4-5-4--555-4-7---|
E|--------------------5---| Back to Main Riff.

INTERLUDE: "I am the innocent bystander"
Guitar 1           2nd part: Guitar 2      Guitar 1
e|---------------------|    |-------------||----------|
B|---------------------|    |-10-9/7-7~---||----------|
G|-77777-6-7-6---------|    |-------------||-7-6-4~---|
D|-77777-6-7-6-7-------|    |-------------||-7-6-4~---|
A|-55555-4-5-4-7-------|    |-------------||-5-4-2~---|
E|-------------5-------|    |-------------||----------|
Then for the next part "Cuz im down on my luck"
Guitar 1 plays the Main Riff while Guitar 2 plays this:
e|----------------------------------------------------|
B|--14h15-1515--14-1515--15p14--14h15-1515-14-12~-----|
G|----------------------------------------------------|
D|----------------------------------------------------|
A|----------------------------------------------------|
E|----------------------------------------------------|

VERSE 3: "I'm hiding in Honduras"
Guitar 1      Both     Guitar 1     Both      Guitar 1
e|---------|----------|---------|------------||--------------------------|
B|---------|----------|---------|------------||--------------------------|
G|---------|-66-7-6-4-|---------|-7-77-6-----||-------6-7-4--------------|
D|-7-7-----|-66-7-6-4-|-77-6----|-7-77-6-7---||-------6-7-4---7-77-6-----|
A|-5-5-7-7-|-44-5-4-2-|-55-4--7-|-5-55-4-7---||-------4-5-2---5-55-4-7---|
E|-----5-5-|----------|-------5-|--------5---||----------------------5---|
"HEY!" Back to Main Riff.

"Send Lawyers, Guns, and Money" (2:03)
Both Guitars          Both (Main Riff)
e|------------------||----------------------------|
B|------------------||----------------------------|
G|-6--7--777~-------||-7-77-6-7-7/6--6/7-77-6-4---|
D|-6--7--777~-------||-7-77-6-7-7/6--6/7-77-6-4---|
A|-4--5--555~-------||-5-55-4-5-5/4--4/5-55-4-2---|
E|------------------||----------------------------|
2nd time:
e|------------------||----------------------------|
B|------------------||----------------------------|
G|-6--7--777~-------||-9-11-9-11/13-11-13-14~-----|
D|-6--7--777~-------||----------------------------|
A|-4--5--555~-------||----------------------------|
E|------------------||----------------------------|
Then go to the Main Riff

Next play the Interlude again and on the last time
Guitar plays this transition to the outro.
e|-------------------------------|
B|-------------------------------|
G|--11h13-11-9-11-13-11-13/14~---|
D|-------------------------------|
A|-------------------------------|
E|-------------------------------|


OUTRO:
Guitar 1 plays the Main Riff while Guitar 2 plays this:
e|----------------------------------------------------|
B|--14h15-1515--14-1515--15p14--14h15-1515-14-12~-----|
G|----------------------------------------------------|
D|----------------------------------------------------|
A|----------------------------------------------------|
E|----------------------------------------------------|
Guitar 1 ends on:           Guitar 2 ends on:
e|---------|               |------|
B|---------|               |-10~--|
G|---------|               |------|
D|--7~-----|               |------|
A|--7~-----|               |------|
E|--5------|               |------|

Let those notes ring for a second, then both guitars hit
the last chord together:
e|---------|
B|---------|
G|---------|
D|---7-----|
A|---7-----|
E|---5-----|

Rock On.
            
Submit corrections

comments powered by Disqus
↑ Back to top | Warren Zevon Tabs for Lawyers Guns And Money. Lyrics for acoustic guitar and electric guitar. Tablatures and chords are parodies/interpretations of the original songs. You may use it for private study, scholarship, research or language learning purposes only