>
 >
Carmelita 1

Carmelita 1 Guitar Tabs

Warren Zevon - Carmelita 1 chords, tabs, tablatures, lyrics

Guitar lessons | Add/correct | Request | Top 50 tabs Artists:  A B C D E F G H I J K L M N O P Q R S T U V W X Y Z 0-9

Carmelita 1 Guitar Tabs – Warren Zevon

CD, Sheet music, Poster

Do you like Carmelita 1? Share with your friends now
ChordsTabsTabs v2Ukulele
Tempo = 94
ZEVON

Legend
L - tied note
x - dead note
h - hammer on/pull off
b - bend
s - slide
~ - vibrato
g - ghost note
> - accentuated note
t - trill
M - palm mute
. - staccato
P - popping (bass)
S - slapping (bass)
+ - tapping
W - wide vibrato
< - fade in
w - whammy bar
= - tremolo picking
v - brush up
^ - brush down
V - pick stroke up
n - pick stroke down


E |-------|-------|-------|-------|--------------------0--2----|
B |-------|-------|-------|-------|----------------------------|
G |-------|-------|-------|-------|----------------------------|
D |-------|-------|-------|-------|----------------------------|
A |-------|-------|-------|-------|----------------------------|
E |-------|-------|-------|-------|----------------------------|


--2-----4--4L-4-----4-----4--4-----4L-4-----2-------|
----------------------------------------------------|
----------------------------------------------------|
----------------------------------------------------|
----------------------------------------------------|
----------------------------------------------------|


--2-----0--0L-0-----------------------0-----2-------|
----------------------------------------------------|
----------------------------------------------------|
----------------------------------------------------|
----------------------------------------------------|
----------------------------------------------------|


--4-----4--4--2--2--0--0----|--------------------2--4----|
----------------------------|----------------------------|
----------------------------|----------------------------|
----------------------------|----------------------------|
----------------------------|----------------------------|
----------------------------|----------------------------|


--5-----------5--5--------------------------5-------|
----------------------------------------------------|
----------------------------------------------------|
----------------------------------------------------|
----------------------------------------------------|
----------------------------------------------------|


--7-----------5-----4-----2-----------------2--2----|
----------------------------------------------------|
----------------------------------------------------|
----------------------------------------------------|
----------------------------------------------------|
----------------------------------------------------|


--2-----5-----------------4--2--4-----------0-------|
----------------------------------------------------|
----------------------------------------------------|
----------------------------------------------------|
----------------------------------------------------|
----------------------------------------------------|


-----------------------12---|
--------------------12-12---|
--------------------13------|
----------------------------|
----------------------------|
----------------------------|


--12-11-12----------------12----------12-11-9-------|
--14-12-14----------------14----------14-12-10------|
----------------------------------------------------|
----------------------------------------------------|
----------------------------------------------------|
----------------------------------------------------|


--12-12L------12L---------12----------------9-------|
--14-14L------14L---------14----------------10------|
----------------------------------------------------|
----------------------------------------------------|
----------------------------------------------------|
----------------------------------------------------|


--12----12------------------------------------------|
--12----12----------------12------------------------|
--------------------------13-14-13----------14------|
-----------------------------16-14------------------|
----------------------------------------------------|
----------------------------------------------------|


-----------------------5----|
--------------------9--7----|
--14----------------9-------|
----------------------------|
--12------------------------|
----------------------------|


--7-----------7-----------7--9--------7-------------|
--9-----------9-----------9--10-------9-------------|
----------------------------------------------------|
----------------------------------------------------|
----------------------------------------------------|
----------------------------------------------------|


--7-----------------5--5----|
--9-----10-10-------7--7----|
--------11-11---------------|
----------------------------|
----------------------------|
----------------------------|


--5-----------------------7-----------------------9-----------------------7-----|
--7-----------------------9-----------------------10----------------------9-----|
--------------------------------------------------------------------------------|
--------------------------------------------------------------------------------|
--------------------------------------------------------------------------------|
--------------------------------------------------------------------------------|


--------------------------------------------------------------------|
------------------------------10-------9----------------------------|
------------------------------11-------9----------------------------|
--------------------------------------------------------------------|
--------------------------------------------------------------------|
--------------------------------------------------------------------|


----------------|--------------------0--2----|
--9-------------|----------------------------|
--9-------------|----------------------------|
----------------|----------------------------|
----------------|----------------------------|
----------------|----------------------------|


--2--4-----4L-4L----4L----4L-4-----4L-4-----2-------|
----------------------------------------------------|
----------------------------------------------------|
----------------------------------------------------|
----------------------------------------------------|
----------------------------------------------------|


--2-----0--0L-0-----------------------0-----2-------|
----------------------------------------------------|
----------------------------------------------------|
----------------------------------------------------|
----------------------------------------------------|
----------------------------------------------------|


--4L----------4L----4-----2L-2--2L----2-----0-------|
----------------------------------------------------|
----------------------------------------------------|
----------------------------------------------------|
----------------------------------------------------|
----------------------------------------------------|


-----------------------------------------------4----|
----------------------------------------------------|
----------------------------------------------------|
----------------------------------------------------|
----------------------------------------------------|
----------------------------------------------------|


--5--5--5L----5-----5-----5-----5L----5-----5-------|
----------------------------------------------------|
----------------------------------------------------|
----------------------------------------------------|
----------------------------------------------------|
----------------------------------------------------|


--7-----------5--4L-4-----2-----------------2--2----|
----------------------------------------------------|
----------------------------------------------------|
----------------------------------------------------|
----------------------------------------------------|
----------------------------------------------------|


--2--5L-5--5--4--2-----0----|-----------------------12---|
----------------------------|--------------------12-12---|
----------------------------|--------------------13------|
----------------------------|----------------------------|
----------------------------|----------------------------|
----------------------------|----------------------------|


--12-11-12----------------12----------12-11-9-------|
--14-12-14----------------14----------14-12-10------|
----------------------------------------------------|
----------------------------------------------------|
----------------------------------------------------|
----------------------------------------------------|


--12-12L------12L---------12----------------9-------|
--14-14L------14L---------14----------------10------|
----------------------------------------------------|
----------------------------------------------------|
----------------------------------------------------|
----------------------------------------------------|


--12----12------------------------------------------|
--12----12----------------12------------------------|
--------------------------13-14-13----------14------|
-----------------------------16-14------------------|
----------------------------------------------------|
----------------------------------------------------|


-----------------------5----|
--------------------9--7----|
--14----------------9-------|
----------------------------|
--12------------------------|
----------------------------|


--7-----------7-----------7--9--------7-------------|
--9-----------9-----------9--10-------9-------------|
----------------------------------------------------|
----------------------------------------------------|
----------------------------------------------------|
----------------------------------------------------|


--7-----------------5--5----|
--9-----10-10-------7--7----|
--------11-11---------------|
----------------------------|
----------------------------|
----------------------------|


--5-----------------------7-----------------------9-----------------------7-----|
--7-----------------------9-----------------------10----------------------9-----|
--------------------------------------------------------------------------------|
--------------------------------------------------------------------------------|
--------------------------------------------------------------------------------|
--------------------------------------------------------------------------------|


--------------------------------------------------------------------|
------------------------------10-------9----------------------------|
------------------------------11-------9----------------------------|
--------------------------------------------------------------------|
--------------------------------------------------------------------|
--------------------------------------------------------------------|


----------------|-------|-------|-------|-------|-------|-------|-------|
--9-------------|-------|-------|-------|-------|-------|-------|-------|
--9-------------|-------|-------|-------|-------|-------|-------|-------|
----------------|-------|-------|-------|-------|-------|-------|-------|
----------------|-------|-------|-------|-------|-------|-------|-------|
----------------|-------|-------|-------|-------|-------|-------|-------|


-------|-------|-------|-------|-------|-------|-------|-------|-------|-------|
-------|-------|-------|-------|-------|-------|-------|-------|-------|-------|
-------|-------|-------|-------|-------|-------|-------|-------|-------|-------|
-------|-------|-------|-------|-------|-------|-------|-------|-------|-------|
-------|-------|-------|-------|-------|-------|-------|-------|-------|-------|
-------|-------|-------|-------|-------|-------|-------|-------|-------|-------|


-------|--------------------0--2----|
-------|----------------------------|
-------|----------------------------|
-------|----------------------------|
-------|----------------------------|
-------|----------------------------|


--2-----4L-4L-4-----4-----4--4L----4L-4-----2-------|
----------------------------------------------------|
----------------------------------------------------|
----------------------------------------------------|
----------------------------------------------------|
----------------------------------------------------|


--2-----0L-0L-0-----------------------0-----2-------|
----------------------------------------------------|
----------------------------------------------------|
----------------------------------------------------|
----------------------------------------------------|
----------------------------------------------------|


--4-----4--4L-4--2--0L-0----|--------------------2--4----|
----------------------------|--4-------------------------|
----------------------------|----------------------------|
----------------------------|----------------------------|
----------------------------|----------------------------|
----------------------------|----------------------------|


--5-----------5--5--------------------------5-------|
----------------------------------------------------|
----------------------------------------------------|
----------------------------------------------------|
----------------------------------------------------|
----------------------------------------------------|


--7-----------5-----4-----2-----------------2--2----|
----------------------------------------------------|
----------------------------------------------------|
----------------------------------------------------|
----------------------------------------------------|
----------------------------------------------------|


--2-----5-----------------4--2--4-----------0-------|
----------------------------------------------------|
----------------------------------------------------|
----------------------------------------------------|
----------------------------------------------------|
----------------------------------------------------|


-----------------------12---|
--------------------12-12---|
--------------------13------|
----------------------------|
----------------------------|
----------------------------|


--12-11-12----------------12----------12-11-9-------|
--14-12-14----------------14----------14-12-10------|
----------------------------------------------------|
----------------------------------------------------|
----------------------------------------------------|
----------------------------------------------------|


--12-12L------12L---------12----------------9-------|
--14-14L------14L---------14----------------10------|
----------------------------------------------------|
----------------------------------------------------|
----------------------------------------------------|
----------------------------------------------------|


--12----12------------------------------------------|
--12----12----------------12------------------------|
--------------------------13-14-13----------14------|
-----------------------------16-14------------------|
----------------------------------------------------|
----------------------------------------------------|


-----------------------5----|
--------------------9--7----|
--14----------------9-------|
----------------------------|
--12------------------------|
----------------------------|


--7-----------7-----------7--9--------7-------------|
--9-----------9-----------9--10-------9-------------|
----------------------------------------------------|
----------------------------------------------------|
----------------------------------------------------|
----------------------------------------------------|


--7-----------------5--5----|
--9-----10-10-------7--7----|
--------11-11---------------|
----------------------------|
----------------------------|
----------------------------|


--5-----------------------7-----------------------9-----------------------7-----|
--7-----------------------9-----------------------10----------------------9-----|
--------------------------------------------------------------------------------|
--------------------------------------------------------------------------------|
--------------------------------------------------------------------------------|
--------------------------------------------------------------------------------|


--------------------------------------------------------------------|
------------------------------10-------9----------------------------|
------------------------------11-------9----------------------------|
--------------------------------------------------------------------|
--------------------------------------------------------------------|
--------------------------------------------------------------------|


----------------|-----------------------12---|
--9-------------|--------------------12-12---|
--9-------------|--------------------13------|
----------------|----------------------------|
----------------|----------------------------|
----------------|----------------------------|


--12-11-12----------------12----------12-11-9-------|
--14-12-14----------------14----------14-12-10------|
----------------------------------------------------|
----------------------------------------------------|
----------------------------------------------------|
----------------------------------------------------|


--12-12L------12L---------12----------------9-------|
--14-14L------14L---------14----------------10------|
----------------------------------------------------|
----------------------------------------------------|
----------------------------------------------------|
----------------------------------------------------|


--12----12------------------------------------------|
--12----12----------------12------------------------|
--------------------------13-14-13----------14------|
-----------------------------16-14------------------|
----------------------------------------------------|
----------------------------------------------------|


-----------------------5----|
--------------------9--7----|
--14----------------9-------|
----------------------------|
--12------------------------|
----------------------------|


--7-----------7-----------7--9--------7-------------|
--9-----------9-----------9--10-------9-------------|
----------------------------------------------------|
----------------------------------------------------|
----------------------------------------------------|
----------------------------------------------------|


--7-----------------5--5----|
--9-----10-10-------7--7----|
--------11-11---------------|
----------------------------|
----------------------------|
----------------------------|


--5-----------------------7-----------------------9-----------------------7-----|
--7-----------------------9-----------------------10----------------------9-----|
--------------------------------------------------------------------------------|
--------------------------------------------------------------------------------|
--------------------------------------------------------------------------------|
--------------------------------------------------------------------------------|


--------------------------------------------------------------------|
------------------------------10-------9----------------------------|
------------------------------11-------9----------------------------|
--------------------------------------------------------------------|
--------------------------------------------------------------------|
--------------------------------------------------------------------|


----------------|-------|-------|-------||
--9-------------|-------|-------|-------||
--9-------------|-------|-------|-------||
----------------|-------|-------|-------||
----------------|-------|-------|-------||
----------------|-------|-------|-------||





Comments


Popular Warren Zevon tabs & chords
Boom Boom Mancini Chords
Hit Somebody Chords
Keep Me In Your Heart 1 Chords
Poor, Poor Pitiful Me Chords
Warewolves Of London Chords
Ill Go On Ukulele
Searching For A Heart Ukulele
Steady Rain Ukulele
The French Inhaler Ukulele
Warewolves Of London Ukulele


Song lyrics



↑ Back to top | Tablatures and chords are parodies/interpretations of the original songs. You may use it for private study, scholarship, research or language learning purposes only
© 2014 AZChords.com Contact us | Privacy policy | DMCA | Add/correct tabs | Request tabs | Top 50 tabs