» » »

Warren Haynes, Forevermore Tabs (ver.1)

Artists:  A B C D E F G H I J K L M N O P Q R S T U V W X Y Z # 

Forevermore Tabs (ver.1)

Warren Haynes Tabs
Rating:
5/5 (1 vote)
Hard to play? Try these video lessons and learn fast.
                Tuning:  Standard

        Looking for a tab for this song I happened upon one that had just the chords but looked
 As I tried to play it with the song, however, I started to find mistakes.  So I
to take that one and alter it so that it is correct, at least as correct as I can get.  
have any questions please feel free to e-mail me.


  Am    B7    C     G     D     Dm    F     Em
e|--0----2-----0-----3-----2-----1-----1-----0--|
B|--1----0-----1-----3-----3-----3-----1-----0--|
G|--2----2-----0-----0-----2-----2-----2-----0--|
D|--2----1-----2-----0-----0-----0-----3-----2--|
A|--0----2-----3-----2-----------------3-----2--|
E|--0----------0-----3-----------------1-----0--|


Intro
e|-----0------0------0------2-|
B|----1-1----0-0----1-1----0--|
G|---2------2------2------2---|
D|--2------1------2------1----|
A|-0------2------0------2-----|
E|----------------------------|

e|-----0------0------0------2-|
B|----1-1----0-0----1-1----0--|
G|---2------2------2------2---|
D|--2------1------2------1----|
A|-0------2------0------2-----|
E|----------------------------|

Main Verse
e|-----0------2------0------2--|
B|----1-1----0-0----1-1----0-0-|
G|---2------2------2------2----|
D|--2------1------2------1-----|
A|-0------2------0------2------|
E|-----------------------------|

e|-----0------2------0--------2-2222-|
B|----1-1----0-0----1-1-----3-3-3333-|
G|---2------2------0-------0--2-2222-|
D|--2------1------2-------0---0-0000-|
A|-0------2------3-------2-----------|
E|----------------------3------------|


Am             B7
I can feel the rain fall down
Am           B7
like tears upon my shoulders
Am             B7
I can feel the gods look down
C        G   D
cry on forevermore

Am                 B7
Yes I can feel the gods look down
Am               B7
some laugh while some are crying
Am             B7
I can feel the wasted tears
C         G   D
cry on forevermore

Chorus
Strum the chords in the chorus.

            Dm
can’t you see?
F                 C
my whole world is nothing
    G
without you

D            A             C               G
where will I run to when I need a place to hide
Em   C                 G              C
far away from new York city
D            A             C               G
who will I turn to now that our love has died

Am        B7
once in a lullaby
Am            B7
A paper sun was shining
Am           B7
now that it’s all burned up
  C      G   D
I cry forevermore

Am        B7
once in a lullaby
Am             B7
you brought me joy and laughter
Am           B7
now that it’s all used up
C        G      D
darkness forevermore


            Dm
can’t you see?
F                 C
my whole world is nothing
    G
without you

D            A             C               G
where will I run to when I need a place to hide
Em   C                 G
far away from new York city
D            A             C               G
who will I turn to now that our love has died

Am             B7
I can feel the rain fall down
Am           B7
like tears upon my shoulders
Am       Bm
oh I can feel my love
C         G       D
she’s gone forever more
            

comments powered by Disqus
↑ Back to top | Warren Haynes Tabs for Forevermore. Lyrics for acoustic guitar and electric guitar. Tablatures and chords are parodies/interpretations of the original songs. You may use it for private study, scholarship, research or language learning purposes only