» » »

Love Is Not A Fight Tabs (ver.1)

Artists:  A B C D E F G H I J K L M N O P Q R S T U V W X Y Z # 

Love Is Not A Fight Tabs (ver.1)

Warren Barfield
Rating:
5/5 (9 votes)
Tabs too difficult? Try these video lessons and learn fast.
                Standard Tuning
Capo 5

Chords

  A     E    C#m    B
|-0-| |-0-| |-0-| |-0-|
|-0-| |-0-| |-5-| |-0-|
|-2-| |-1-| |-6-| |-4-|
|-2-| |-2-| |-6-| |-4-|
|-0-| |-2-| |-4-| |-2-|
|-x-| |-0-| |-x-| |-x-|



Intro:
                              x2
 e|---------------------------||
 B|--5---4\2-2---0------------||
 G|--6---4\2-2-------1--------||
 D|------------------2--------||
 A|--4-------0---2------------||
 E|------------------0--------||

Verse: 1 & 2
                              x2
 e|---------------------------||
 B|--5---4\2-2---0------------||
 G|--6---4\2-2-------1--------||
 D|------------------2--------||
 A|--4-------0---2------------||
 E|------------------0--------||


 e|---------------------------|
 B|--5---4\2-2---0------------|
 G|--6---4\2-2-------1----4---|
 D|------------------2----4---|
 A|--4-------0---2--------2---|
 E|------------------0--------|

     A       E       B
 e|---------------------------||
 B|---------------------------||
 G|--2-------1-------4--------||
 D|--2-------2-------4--------||
 A|--0-------2-------2--------||
 E|----------0------(0)-------||

...commit to never leave   v1
 ...bring us to our knees   v2
  

Chorus:

A         E     C#m           B
Love is a shelter in a raging storm.
A         E           C#m             B         
Love is a peace in the middle of a war.
    A                E               C#m            B                
And if we try to leave, may God send angels to guard the door.
    A             E              A               B              
No, love is not a fight, but its something worth fighting for.


Verse: 3
                              x2
 e|---------------------------||
 B|--5---4\2-2---0------------||
 G|--6---4\2-2-------1--------||
 D|------------------2--------||
 A|--4-------0---2------------||
 E|------------------0--------||


 e|---------------------------|
 B|--5---4\2-2---0------------|
 G|--6---4\2-2-------1----4---|
 D|------------------2----4---|
 A|--4-------0---2--------2---|
 E|------------------0--------|

     A       E       B
 e|---------------------------||
 B|---------------------------||
 G|--2-------1-------4--------||
 D|--2-------2-------4--------||
 A|--0-------2-------2--------||
 E|----------0------(0)-------||
  ...word is hard to do


Chorus:

A         E     C#m           B
Love is a shelter in a raging storm.
A         E           C#m             B         
Love is a peace in the middle of a war.
    A                E               C#m            B                
And if we try to leave, may God send angels to guard the door.
    A             E              A               B              
No, love is not a fight, but its something worth fighting for.


Verse 4:
                              x2
 e|---------------------------||
 B|--5---4\2-2---0------------||
 G|--6---4\2-2-------1--------||
 D|------------------2--------||
 A|--4-------0---2------------||
 E|------------------0--------||


 e|---------------------------|
 B|--5---4\2-2---0------------|
 G|--6---4\2-2-------1----4---|
 D|------------------2----4---|
 A|--4-------0---2--------2---|
 E|------------------0--------|

     A       E       B
 e|---------------------------||
 B|---------------------------||
 G|--2-------1-------4--------||
 D|--2-------2-------4--------||
 A|--0-------2-------2--------||
 E|----------0------(0)-------||
...demand ...give ...all


Chorus:

A         E     C#m           B
Love is a shelter in a raging storm.
A         E           C#m             B         
Love is a peace in the middle of a war.
    A                E               C#m            B                
And if we try to leave, may God send angels to guard the door.
    A             E              A               B              
No, love is not a fight, but its something worth fighting for.


Outro:
                              x4
 e|---------------------------||
 B|--5---4\2-2---0------------||
 G|--6---4\2-2-------1--------||
 D|------------------2--------||
 A|--4-------0---2------------||
 E|------------------0--------||
            
Tabs too difficult? Try these video lessons and learn fast.


comments powered by Disqus
↑ Back to top | Tablatures and chords are parodies/interpretations of the original songs. You may use it for private study, scholarship, research or language learning purposes only