» » »

Warrant, Sad Theresa Tabs (ver.1)

Artists:  A B C D E F G H I J K L M N O P Q R S T U V W X Y Z # 

Sad Theresa Tabs (ver.1)

Warrant Tabs
 Rating:
4/5 (4 votes)
Sad Theresa lessons Tabs too difficult? Try these video lessons and learn fast
                (Intro)
-------------------------------------------------------------------------------
                             Sad Theresa - Warrant
-------------------------------------------------------------------------------

Tuning: Standard

Sad Theresa                On your front porch swing
                                                  
e|---------3-x-3-3-x-3-3-x-3-3---2-2-x-2-2-x-2-2--3-2--3-3-2----------------|
B|---------3-x-3-3-x-3-3-x-3-3---3-3-x-3-3-x-3-3--3-3--3-3-3----------------|
G|---------0-x-0-0-x-0-0-x-0-0---2-2-x-2-2-x-2-2--2-2--2-2-2----------------|
D|---------0-x-0-0-x-0-0-x-0-0---0-0-x-0-0-x-0-0--0-0--0-0-0----------------|
A|---------2-x-2-2-x-2-2-x-2-2----------------------------------------------|
E|---------3-x-3-3-x-3-3-x-3-3----------------------------------------------|

   The lights are twinkling bright but nobody’s home                 
                                     
e|--------------------------------------------------3-3--2-2-3-2------------|
B|-----3----------3---------2-----------------------3-3--3-3-3-3------------|
G|-----2----------2---------2----------------------------2-2-2-2------------|
D|-----0----------0---------2----------------------------0-0-0-0------------|
A|-----3----------3---------0------0h2----0-2-------------------------------|
E|--------------------------------------3------0----------------------------|

That’s the same for each verse. Working on the chorus and bridge. Any feedback is appreciated. 

************************************

| /   slide up
| \   slide down
| h   hammer-on
| p   pull-off
| ~   vibrato
| +   harmonic
| x   Mute note
| b   Bend
| pb  Pre-bend
| br  Bend release
| pbr Pre-bend release
| brb Bend release bend

************************************
            
Submit corrections

comments powered by Disqus
↑ Back to top | Warrant Tabs for Sad Theresa. Lyrics for acoustic guitar and electric guitar. Tablatures and chords are parodies/interpretations of the original songs. You may use it for private study, scholarship, research or language learning purposes only