>
 >
D.R.F.S.R

D.R.F.S.R Bass Tabs

Warrant - D.R.F.S.R chords, tabs, tablatures, lyrics

Guitar lessons | Add/correct | Request | Top 50 tabs Artists:  A B C D E F G H I J K L M N O P Q R S T U V W X Y Z 0-9

D.R.F.S.R Bass Tabs – Warrant

CD, Sheet music, Poster

Do you like D.R.F.S.R? Share with your friends now
Bass TabsChords
Intro
G----------------------------------|
D----------------------------------|
A-6-4-6-----------4-2-4------------|
D-------111-11111-------111-11111--|

G--------------------------------|
D--------------------------------|
A-6-4-6-----------4-2-4-----0----|
D-------111-11111-------1-1---5--|

Verse
G-------------------|
D-------------------|
A--6-4-6----4-2-4---|
D-------------------|

G-------------------------|
D--------------------6--4-|
A--6-4-6----4-2-4---------|
D-------------------------|

G----------------------------------|
D----------------------------------|
A--6-4-6-----------4-2-4-----------|
D--------111-11111-------111-11111-|

G----------------------------------|
D-----------------------------6--4-|
A--6-4-6-----------4-2-4-----------|
D--------111-11111-------1-1-------|

Chorus
G-------------------------------------------------------|
D--------------------------------------------------4/6--|
A-2-2-2-0-2-2-2-3-4-4-4-2-4-4-4-2-----------------------|
D---------------------------------4-4--4-4---6-6--------|

G---------------|
D---------------|
A-2-2-----------|
D-----5-5--3--1-|

Post-Chorus
G--------------------------|
D------------------6-6-5-4-|
A--6-4-6----4-2-4----------|
D--------------------------|

Verse 2
G-----------------|
D-----------------|
A--6-4-6----4-2-4-|
D-----------------|

G-----------------------|
D-------------------6-4-|
A--6-4-6----4-2-4-------|
D-----------------------|

G---------------------------------|
D---------------------------------|
A-6-4-6-----------4-2-4-----------|
D-------111-11111-------111-11111-|

G---------------------------------|
D----------------------------6--4-|
A-6-4-6-----------4-2-4-----------|
D-------111-11111-------1-1-------|

Chorus
G-----------------------------------------------------|
D------------------------------------------------4/6--|
A-2-2-2-0-2-2-2-0-4-4-4-2-4-4-4-2---------------------|
D---------------------------------4-4--4-4--6-6-------|

G----------------|
D----------------|
A-2-2------------|
D------5-5--3--1-|

Bridge
G--------------17--17-|
D-----------/15--15---|
A------4~-------------|
D-1~------------------|

G---------|
D---------|
A---------|
D-1~---6~-|

G---------|
D---------|
A------4~-|
D-1~------|

G---------|
D---------|
A---------|
D-1~---6~-|

G--------------------------------|
D--------------------------------|
A-----------------4--4-4-4-4-4-4-|
D-1--1-1-1-1-1-1-----------------|

G---------------------|
D---------------------|
A---------------------|
D-1--1-1-1-1-1-1---6--|

G- -----------------------|
D-------------------------|
A-4-2-0-4-2---4-2-0-4-2---|
D-----------6-----------6-|

Guitar Solo
G--------------------------|
D--------------------------|
A--------------------------|   x4
D-3-3--6-6--1--1-1-1-1-1/5-|

G--------------------------|
D----------------3-3-3-3-3-|
A------1-1-----------------|   x1
D-5-5-------3--3-----------|

G--------------------------|
D--------------------------|
A------1-1-----------------|   x1
D-5-5-------3--3-3-3-3-3-3-|

G--------------------------|
D--------------------------|
A--------------------------|
D-3-3--6-6--1--1-1-1-1-1/5-|

G--------------------------------------------|
D--------------------------------------------|
A-2-2--3-3--4-4--6-6--4-4--1-1---------------|
D-------------------------------6-6--1-1-1-1-|

Pre-Chorus
G------------------------------------|
D------------------------------------|
A--6-4-6-----------6-4-6-------------|
D--------111-11111-------111-11111---|

Chorus
G------------------------------------------------------|
D------------------------------------------------------|
A-2-2-2-0-2-2-2-3-4-4-4-2-4-4-4-2----------------------|
D---------------------------------4-4-4-4-4-4--6-6-6-6-|

G--------------------------------------------------------|
D-----------------------111-3333-4444-----------------4\-|
A-2-2-2-0-2-2-2-3-4-4-4----------------------------------|
D-------------------------------------4-4--4-4--6-6------|

G----------------|
D----------------|
A-2-2------------|
D------5-5--3--1-|

Post-Chorus
G-----------------------------------|
D-----------------------------------|
A--6-4-6-----------4-2-4------------|
D--------111-11111-------111-11111--|

G----------------------------------|
D----------------------------------|
A--6-4-6-----------4-2-4-----------|
D--------111-11111-------111111111-|

Ending
G--------------------------------------------------------------|
D--------------------------------------------------------------|
A-----------------------------------------------0-0-0-00000000-|
D-1-1-1-111111111-3-3-3-33333333-6-6-6-66666666----------------|

G--------------------------------------------------------------------------|
D-1-1111111111111-3-3333333333333-4-4444444444444-5-5555555555555----------|
A-----------------------------------------------------------------(fading--|
D--------------------------------------------------------------------------|  out)





Comments


Popular Warrant tabs & chords
Cherry Pie 1 Bass Tabs
Cherry Pie 2 Bass Tabs
Cherry Pie 1 Tabs
Down Boys 1 Tabs
Heaven 1 Tabs
Sometimes She Cries Intro Tabs
Train, Train Tabs
You're The Only Hell Your Mama Ever Raised Tabs
Big Talk Ukulele
I Cant Help Myself Ukulele


Song lyrics



↑ Back to top | Tablatures and chords are parodies/interpretations of the original songs. You may use it for private study, scholarship, research or language learning purposes only
© 2014 AZChords.com Contact us | Privacy policy | DMCA | Add/correct tabs | Request tabs | Top 50 tabs