» » »

Warrant, D.R.F.S.R Chords (ver.1)

Artists:  A B C D E F G H I J K L M N O P Q R S T U V W X Y Z # 

D.R.F.S.R Chords (ver.1)

Warrant Tabs
 Rating:
4/5 (4 votes)
D.R.F.S.R lessons Tabs too difficult? Try these video lessons and learn fast
1
                By Christopher McWhirter

Dirty Rotten Filthy $tinking Rich

Eb-0---0----------|---------|
Bb-0---0----------|---------|
Gb-9-7-9----------|-7-5-7---|
Db-9-7-9----------|-7-5-7---|
Ab-7-5-7----------|-5-3-5---|
Eb-0---0--0-0-0-0-|---------|
          |--pm-|
Eb-0---0----------|---------|-----|
Bb-0---0----------|---------|-----|
Gb-9-7-9----------|-7-5-7---|-2---|
Db-9-7-9----------|-7-5-7---|-2-5-|
Ab-7-5-7----------|-5-3-5---|-0-5-|
Eb-0---0--0-0-0-0-|---------|---3-|
          |--pm-|

E    D  E    D       C     D
Italian cars as long as my street
E             D       E
I'm gonna wear exotic animals
D  C  D    A  G
On my feet
E      D E
Pretty rocks on my fingers
D    C    D
Pretty bells on my toes
E        D          E
Lots of caviar for my mouth
D     C    D      A       G
Maybe I'll even pierce my nose

BRIDGE
C        C                   D
Give me, give me just half a chance
G                   A
to lead you in this corporate dance
            
Submit corrections

comments powered by Disqus
↑ Back to top | Warrant Chords for D.R.F.S.R. Lyrics for acoustic guitar and electric guitar. 1 Tablatures and chords are parodies/interpretations of the original songs. You may use it for private study, scholarship, research or language learning purposes only