» » »

Cherry Pie Tabs (ver.2)

Artists:  A B C D E F G H I J K L M N O P Q R S T U V W X Y Z # 

Cherry Pie Tabs (ver.2)

Warrant
Rating:
4/5 (4 votes)

Tabs too difficult? Try these video lessons and learn fast.
                =======================================================================
Band: Warrant
Tuning: Standard (EADGBe)


h = hammer on
p = pull off
^ = bend
r = release
t = tap
~ = let it ring
/ = slide up
\ = slide down
. = palm mute
H = natural harmonic
* = pinch harmonic
v = vibrato


=======================================================================

Solo: 
    
e|--------|----------------------------------------------|
B|--H12~--|-------10-------10--------11--------11--------|
G|--------|-10/11-11-10/11-11--10/11-11-10/11--11-10/11--|
D|--------|----------------------------------------------|
A|--------|----------------------------------------------|
E|--------|----------------------------------------------|

e|-------------------------------------------------------|
B|-------------10*--9*--10*--9*--10*--10-----------------|
G|----13^*(16)----------------------------9^*(11)--------|
D|-------------------------------------------------------|
A|-------------------------------------------------------|
E|-------------------------------------------------------|

e|----------------|--------------------------------------|
B|---10p7---------|--7------------------7----------------|
G|--------9p7-9p7-|----9p7--9---7vvv------9p7---9-7vvv---|
D|----------------|-------9---9---------------9----------|
A|----------------|--------------------------------------|
E|----------------|--------------------------------------|

e|--(20)^18r\---17^(18)--15^(17)---15vvv--|---17p15------|
B|----------------------------------------|--------17----|
G|----------------------------------------|--------------|
D|----------------------------------------|--------------|
A|----------------------------------------|--------------|
E|----------------------------------------|--------------|

e|--20^(23)-20^(21)--|-17-20p19p17-20p19p17-19p17--------|
B|-------------------|---------------------------20p17h20|
G|-------------------|-----------------------------------|
D|-------------------|-----------------------------------|
A|-------------------|-----------------------------------|
E|-------------------|-----------------------------------|

e|-17---------------------------|----------5-------------|
B|----17p15---------------------|--------5---5--8^(10)---|
G|---------15-/17-17^(19)-17----|--7^(9)-----------------|
D|------------------------------|------------------------|
A|------------------------------|------------------------|
E|------------------------------|------------------------|

e|-------------------|----------------------20-20^(23)r--|
B|--5----------------|-----------------------------------|
G|---7p5--7---5v-7-5-|----------------17-20--------------|
D|------5---7--------|-----------16-19-------------------|
A|-------------------|------15-18------------------------|
E|-------------------|-14-17-----------------------------|

e|-23^~~~~~~~~~~~~~~~~~~~~~~~~~~~~~~~~~~~~~~~~~~~~~~~~~~-|
B|-------------------------------------------------------|
G|-------------------------------------------------------|
D|-------------------------------------------------------|
A|-------------------------------------------------------|
E|-------------------------------------------------------|


=======================================================================
            
Tabs too difficult? Try these video lessons and learn fast.


comments powered by Disqus
↑ Back to top | Tablatures and chords are parodies/interpretations of the original songs. You may use it for private study, scholarship, research or language learning purposes only