» » »

Warrant, Cherry Pie Tabs (ver.4)

Artists:  A B C D E F G H I J K L M N O P Q R S T U V W X Y Z # 

Cherry Pie Tabs (ver.4)

Warrant Tabs
 Rating:
4/5 (4 votes)
Cherry Pie lessons Tabs too difficult? Try these video lessons and learn fast
1
                

Nobody ever tabs this song correctly so i wanted to do it the right way. 99.99% perfect!

------------------------------------------------------------------------------|
------------------------------------------------------------------------------|
------------------------------------------------------------------------------|
------------------------------------------------------------------------------|
-12/1--0--3--5---3-3-3-3---5-5-5-5-----5-4------------------------------------|
-----------------1-1-1-1---3-3-3-3---0-----5-3--------------------------------|


-------------------|--------------------|-------------------------------------|
-------------------|--------------------|-------------------------------------|
-------------------|--------------------|-------------------------------------|
----------------5-7|----------------7---|-------------------------------------|
-2-2--5-5--7-7--3-5|---2-2--5-5--5--5--7|-----7v---5v---4p0--5p0--------------|
-0-0--3-3--5-5-----|---0-0--3-3--3-----5|---0----0----0-----------------------|
 For all the Vibratos use your finger and just sorta wiggle the string,

---------------------------|----------------------|---------------------------|
---------------------------|----------------------|---------------------------|
---------------------------|----------------------|---------------------------|
---------------------------|----------------------|---------------------------|
---7v---5v---4p0--5p0------|----7v---5v---4p0--5p0|--7v---5v---5-4-----0------|
-0----0----0----------/xxx-|--0----0----0---------|0----0----0-----5-3--------|
   Don't use your tremolo bar for the V's. It sounds better when you use the

--------------|-----------------------------------|---------------------------|
--------------|-----------------------------------|---------------------------|
--------------|-----------------------------------|---------------------------|
-----------7--|---------------------5-2v-------7--|---------------------------|
-2-2--2-2--5-7|-2-2-12/2--0-2p0-5p0-------2-2--5-7|---7v---5v---4p0--5p0------|
-0-0--0-0----5|-0-0-----------------------0-0----5|-0----0----0---------------|
 V's but it's sounds ok w/o them...it's your choice.

----------------------|------------------|------------------------------------|
----------------------|------------------|------------------------------------|
----------------------|------------------|------------------------------------|
----------------------|---------------7--|----------------5-2v------7---------|
---7v---5v---5-4-----0|-2-2--7v--2-2--5-7|-2-2--0-2p0-5p0------2-2--5-7-------|
-0----0----0-----5-3--|-0-0------0-0----5|-0-0-----------------0-0----5-------|


---------------------------|-------------------|------------------------------|
---------------------------|-------------------|------------------------------|
---------------------------|-------------------|------------------------------|
--------7------------------|----------------5-7|--------------7---------------|
-7--10--5--3-3-3-3--5-5-5-5|-2-2--5-5--7-7--3-5|-2-2--5-5--5--5--7------------|
-5---8-----1-1-1-1--3-3-3-3|-0-0--3-3--5-5-----|-0-0--3-3--3-----5------------|


--------------------|------------------|--------------------------------------|
--------------------|------------------|--------------------------------------|
--------------------|------------------|--------------------------------------|
----------------5-7-|--------------7---|--------7-------------------5-2v------|
-2-2--5-5--7-7--3-5-|-2-2--5-5--5--5--7|--------5--7--2-2-0-2p0-5p0------2-2--|
-0-0--3-3--5-5------|-0-0--3-3--3-----5|-----------5--0-0----------------0-0--|


-----|---------------------------|-------------------|------------------------|
-----|---------------------------|-------------------|------------------------|
-----|---------------------------|-------------------|------------------------|
-7---|--------7------------------|----------------5-7|--------------7---------|
-5--7|-7--10--5--3-3-3-3--5-5-5-5|-2-2--5-5--7-7--3-5|-2-2--5-5--5--5--7------|
----5|-5---8-----1-1-1-1--3-3-3-3|-0-0--3-3--5-5-----|-0-0--3-3--3-----5------|


-------------------|---------------------------|------------------------------|
-------------------|---------------------------|------------------------------|
-------------------|---------------------------|------------------------------|
----------------5-7|--------------7------------|--------4-4---4---4-----------|
-2-2--5-5--7-7--3-5|-2-2--5-5--5--5--7--------7|------0-2-2-0-2-0-2-----------|
-0-0--3-3--5-5-----|-0-0--3-3--3-----5--------5|-/xxx-------------------------|
                                      let ring

-----------------|--------------|-----------------|---------------------------|
-----------------|--------------|-----------------|---------------------------|
-----------------|--------------|-----------------|---------------------------|
---4-4---4-------|---4-4---4---4|---4-4---4-------|---7v---5v---4p0--5p0------|
-0-2-2-0-2-0--7-6|-0-2-2-0-2-0-2|-0-2-2-0-2-0--7-6|-0----0----0---------------|
--------------5-4|--------------|--------------5-4|---------------------------|
                                                 (higher than the time this

------------------------|---------------------|-------------------------------|
------------------------|---------------------|-------------------------------|
------------------------|---------------------|-------------------------------|
---7v---5v---4p0--5p0---|---7v---5v---4p0--5p0|---7v---5v---5-4-----0---------|
-0----0----0----------3v|-0----0----0---------|-0----0----0-----5-3-----------|
------------------------|---------------------|-------------------------------|
 is played in the beginning).

-------------------|---------------------|-------------------------|----------|
-------------------|---------------------|-------------------------|----------|
-------------------|---------------------|----------------------5-7|----------|
---------------7---|---------------5-2v--|-------2-2--5-5--7-7--3-5|----------|
-2-2--7v--2-2--5--7|-2-2-0-2p0-5p0------2|-12/2--0-0--3-3--5-5-----|----------|
-0-0------0-0-----5|-0-0----------------0|-------------------------|----------|
                                          (higher than the time this is

------------------|-------------------|------------------|--------|-----------|
------------------|-------------------|------------------|--------|-----------|
--------------7---|----------------5-7|--------------7---|----7---|-----------|
-2-2--5-5--5--5--7|-2-2--5-5--7-7--3-5|-2-2--5-5--5--5--7|-5--5--7|-----------|
-0-0--3-3--3-----5|-0-0--3-3--5-5-----|-0-0--3-3--3-----5|-3-----5|-----------|
------------------|-------------------|------------------|--------|-----------|
 played in the beginning also).

-----------------|-----------------|------------------------------------------|
-----------------|-----------------|------------------------------------------|
-5-5-5-5--7-7-7-7|-5-5-5-5--7-7-7-7|------------------------------------------|
-3-3-3-3--5-5-5-5|-3-3-3-3--5-5-5-5|------------------------------------------|
-----------------|-----------------|-7v---7v---5v---4p0-5p0-------------------|
-----------------|-----------------|----0----0----0---------------------------|
                                    (back to the lower way)
            
Submit corrections

comments powered by Disqus
↑ Back to top | Warrant Tabs for Cherry Pie. Lyrics for acoustic guitar and electric guitar. 1 Tablatures and chords are parodies/interpretations of the original songs. You may use it for private study, scholarship, research or language learning purposes only