>
 >
Blind Faith 3

Blind Faith 3 Guitar Tabs

Warrant - Blind Faith 3 chords, tabs, tablatures, lyrics

Guitar lessons | Add/correct | Request | Top 50 tabs Artists:  A B C D E F G H I J K L M N O P Q R S T U V W X Y Z 0-9

Blind Faith 3 Guitar Tabs – Warrant

CD, Sheet music, Poster

Do you like Blind Faith 3? Share with your friends now
ChordsTabsTabs v2Tabs v3Ukulele
-------------------------------------------------------------------------------
                             Blind Faith - Acoustic single guitar by Warrant
-------------------------------------------------------------------------------

Notes: This is a great duet to play with another acoustic guitar, or
even better, if you can find an acoustic bass this is pure gravy.  Not
too hard to learn, the solo is straight forward, you could probably
improvise.  This is my take on the transcription after listening and
playing the song about 20 times today.  The other tab that someone put
up was incorrect.  Close, but the nuances of the chords were incorrect.
Many of the chords were basic chords, where this live performance uses
lots of sustains and adds.  Vocals are broken down to beats rather than
straight words.

the song the exact way I play it.


Tuning: Standard E-A-D-G-B-e

Tempo: Ballad

Performance note: Phospher Bronze strings work wonders for this song on an
electric acoustic guitar.

=========== Intro

   Em                                Csus2

e|-----------------0---------------|-----------------0---------------|
B|---------------------0-----------|-------------------------3-------|
G|-------------0-----------0-------|-------------0-------------------|
D|---------2-------------------2---|---------0-----------------------|
A|---------------------------------|/3-------------------------------|
E|-0-------------------------------|---------------------------------|

   G5                                D                       Dsus4

e|-----------------3---------------|-----------------2-------3-------|
B|---------------------3-----------|---------------------3-----------|
G|-------------0-----------0-------|-------------2-------------------|
D|---------0-------------------0---|---------0-----------------------|
A|---------------------------------|---------------------------------|
E|-3-------------------------------|-2-------------------------------|

   Em                                Csus2

e|-----------------0---------------|-----------------0---------------|
B|---------------------0-----------|-------------------------3-------|
G|-------------0-----------0-------|-------------0-------------------|
D|---------2-------------------2---|---------0-----------------------|
A|---------------------------------|/3-------------------------------|
E|-0-------------------------------|---------------------------------|

   G           D/F#        Dsus4     D

e|---------------------------------|-2-------------------------------|
B|---------------------------------|-3-------------------------------|
G|---------------------------------|-2-------------------------------|
D|---------0-----------0--/2-------|-0-------------------------------|
A|-----2-----------0---------------|---------------------------------|
E|-3-----------2-------------------|---------------------------------|


=========== Verse 1

   Em                                Csus2

e|-----------------0---------------|-----------------0---------------|
B|---------------------0-----------|-------------------------3-------|
G|-------------0-----------0-------|-------------0-------------------|
D|---------2-------------------2---|---------0-----------------------|
A|---------------------------------|/3-------------------------------|
E|-0-------------------------------|---------------------------------|

                   Darlin'                           I       know

   G5                                D                       Dsus4

e|-----------------3---------------|-----------------2-------3-------|
B|---------------------3-----------|---------------------3-------3---|
G|-------------0-----------0-------|-------------2-------------------|
D|---------0-------------------0---|---------0-----------------------|
A|---------------------------------|---------------------------------|
E|-3-------------------------------|-2-------------------------------|

                   You're sleepin'

   Em                                Csus2

e|-----------------3---------------|-----------------3---------------|
B|---------------------0-----------|-------------------------3-------|
G|-------------0-----------0-------|-------------0-------------------|
D|---------2-------------------2---|---------0-----------------------|
A|---------------------------------|/3-------------------------------|
E|-0-------------------------------|---------------------------------|

                   But     there's   some    thing    that   I

   G5                                D                       Dsus4

e|-----------------3---------------|-----------------0--h2-h(3)------|
B|---------------------3-----------|---------------------------------|
G|-------------0-----------0-------|---------2-----------------------|
D|---------0-------------------0---|-------------0-------------------|
A|---------------------------------|---------------------------------|
E|-3-------------------------------|-2-------------------------------|

   Just    got     to      say....

   Em                                Csus2

e|-----------------0---------------|-----------------0---------------|
B|---------------------0-----------|-------------------------3-------|
G|-------------0-----------0-------|-------------0-------------------|
D|---------2-------------------2---|---------0-----------------------|
A|---------------------------------|/3-------------------------------|
E|-0-------------------------------|---------------------------------|

               I   won     der       if      you'll  hear    me

   G5                                D                       Dsus4

e|-----------------3---------------|-----------------2---------------|
B|---------------------3-----------|-------------------------3-------|
G|-------------0-----------0-------|-------------2-------------------|
D|---------0-------------------0---|---------0-----------------------|
A|---------------------------------|---------------------------------|
E|-3-------------------------------|-2-------------------------------|

   While           You're  dreamin'

   Em                                Csus2

e|-----------------0---------------|-----------------0---------------|
B|---------------------0-----------|-------------------------3-------|
G|-------------0-----------0-------|-------------0-------------------|
D|---------2-------------------2---|---------0-----------------------|
A|---------------------------------|/3-------------------------------|
E|-0-------------------------------|---------------------------------|

               You make    a         life    time    out     of

   G5                                D                       Dsus4

e|-----------------3---------------|-----------------0--h2-h(3)------|
B|---------------------3-----------|---------------------------------|
G|-------------0-----------0-------|---------2-----------------------|
D|---------0-------------------0---|-------------0-------------------|
A|---------------------------------|---------------------------------|
E|-3-------------------------------|-2-------------------------------|

   ev      ver     ry      day...

=========== Bridge 1

   A7sus4                            Am7                 Bsus4   Csus2

e|-3---------------3-------3-------|-3--------------(3)--3-------3---|
B|-3---------------3-------3-------|-3--------------(3)--3-------3---|
G|-0---------------0-------0-------|-0--------------(0)--0-------0---|
D|-2---------------2-------2-------|-2-------------------2-------2---|
A|-0---------------0-------0-------|-0---------------0---2-------3---|
E|---------------------------------|---------------------------------|

                   Thanks  to   You                  Now     I   Know

                   Csus2             D/F#

e|-----------------3-------3-------|-2-------2-----------0----2------|
B|-----------------3-------3-------|-3-------3-----------3----3------|
G|-----------------0-------0-------|-2-------2-----------2----2------|
D|-----------------2-------2-------|-0-------0-----------0----0------|
A|-----------------3-------3-------|---------------------------------|
E|---------------------------------|-2-------2-----------2----2------|

                   All    my         dreams  can     come    true!

=========== Chorus (short)

   G5                                D/F#                    Dsus4

e|-3---------------3-------3-------|-2---------------2-------3-------|
B|-3---------------3-------3-------|-3---------------3-------3-------|
G|-0---------------0-------0-------|-2---------------2-------2-------|
D|-0---------------0-------0-------|-0---------------0-------0-------|
A|---------------------------------|---------------------------------|
E|-3---------------3-------3-------|-2---------------2-------2-------|

                   Blind             Faith           In      you

   Cadd9                             D/F#                    Dsus4

e|-3---------------3---------------|-2-------------------0---2-------|
B|-3---------------3---------------|-3-------------------3---3-------|
G|-0---------------0---------------|-2-------------------2---2-------|
D|-0---------------0---------------|-0-------------------0---0-------|
A|-3---------------3---------------|---------------------------------|
E|---------------------------------|-2-------------------2---2-------|

                   Oh      yeah!                         I   got

   G5                                D/F#                    Dsus4

e|-3---------------3-------3-------|-2---------------2-------3-------|
B|-3---------------3-------3-------|-3---------------3-------3-------|
G|-0---------------0-------0-------|-2---------------2-------2-------|
D|-0---------------0-------0-------|-0---------------0-------0-------|
A|---------------------------------|---------------------------------|
E|-3---------------3-------3-------|-2---------------2-------2-------|

   Bli.............lind    Faith                     In      you

   Cadd9                             D/F#              |-band--tacet-|
                                                    (^)
e|-3---------------3---------------|-2---------------2-x-------------|
B|-3---------------3---------------|-3---------------3-x-------------|
G|-0---------------0---------------|-2---------------2-x-------------|
D|-0---------------0---------------|-0---------------0-x-------------|
A|-3---------------3---------------|-------------------x-------------|
E|---------------------------------|-2---------------2-x-------------|
                                                       |----rest-----|

=========== Verse 2

   Em                                Csus2

e|-----------------0---------------|-----------------0---------------|
B|---------------------0-----------|-------------------------3-------|
G|-------------0-----------0-------|-------------0-------------------|
D|---------2-------------------2---|---------0-----------------------|
A|---------------------------------|/3-------------------------------|
E|-0-------------------------------|---------------------------------|

                   Your    eyes                       keep   things

   G5                                D                       Dsus4

e|-----------------3---------------|-----------------2-------3-------|
B|---------------------3-----------|---------------------3-------3---|
G|-------------0-----------0-------|-------------2-------------------|
D|---------0-------------------0---|---------0-----------------------|
A|---------------------------------|---------------------------------|
E|-3-------------------------------|-2-------------------------------|

                          well hid   den

   Em                                Csus2

e|-----------------3---------------|-----------------3---------------|
B|---------------------0-----------|-------------------------3-------|
G|-------------0-----------0-------|-------------0-------------------|
D|---------2-------------------2---|---------0-----------------------|
A|---------------------------------|/3-------------------------------|
E|-0-------------------------------|---------------------------------|

                       just    a     hint    of      what    you're

   G5                                D                       Dsus4

e|-----------------3---------------|-----------------0--h2-h(3)------|
B|---------------------3-----------|---------------------------------|
G|-------------0-----------0-------|---------2-----------------------|
D|---------0-------------------0---|-------------0-------------------|
A|---------------------------------|---------------------------------|
E|-3-------------------------------|-2-------------------------------|

   hol     ding    in      side

   Em                                Csus2

e|-----------------0---------------|-----------------0---------------|
B|---------------------0-----------|-------------------------3-------|
G|-------------0-----------0-------|-------------0-------------------|
D|---------2-------------------2---|---------0-----------------------|
A|---------------------------------|/3-------------------------------|
E|-0-------------------------------|---------------------------------|

                   And     the       first           day     that

   G5                                D                       Dsus4

e|-----------------3---------------|-----------------2-------2---3---|
B|---------------------3-----------|-----------------3---5-----------|
G|-------------0-----------0-------|-------------2-------------------|
D|---------0-------------------0---|---------0-----------------------|
A|---------------------------------|---------------------------------|
E|-3-------------------------------|-2-------------------------------|

   (that)....................................I       met     you...

   Em                                Csus2

e|(3)--------------0---------------|-----------------0---------------|
B|---------------------0-----------|-------------------------3-------|
G|-------------0-----------0-------|-------------0-------------------|
D|---------2-------------------2---|---------0-----------------------|
A|---------------------------------|/3-------------------------------|
E|-0-------------------------------|---------------------------------|

                   I       con       sid     er      that(the)first

   G5                                D                       Dsus4

e|-----------------3---------------|-----------------0--h2-h(3)------|
B|---------------------3-----------|---------------------------------|
G|-------------0-----------0-------|---------2-----------------------|
D|---------0-------------------0---|-------------0-------------------|
A|---------------------------------|---------------------------------|
E|-3-------------------------------|-2-------------------------------|

   day     of      my      life

=========== Bridge 2

   Asus4                             Asus4               Bsus4   Csus2

e|-3---------------3-------3-------|-3--------------(3)--3-------3---|
B|-3---------------3-------3-------|-3--------------(3)--3-------3---|
G|-0---------------0-------0-------|-0--------------(0)--0-------0---|
D|-2---------------2-------2-------|-2-------------------2-------2---|
A|-0---------------0-------0-------|-0---------------0---2-------3---|
E|---------------------------------|---------------------------------|

                   Thanks  to   You                  Now     I   Know

                   Csus2             D/F#

e|-----------------3-------3-------|-2-------2-----------0----2------|
B|-----------------3-------3-------|-3-------3-----------3----3------|
G|-----------------0-------0-------|-2-------2-----------2----2------|
D|-----------------2-------2-------|-0-------0-----------0----0------|
A|-----------------3-------3-------|---------------------------------|
E|---------------------------------|-2-------2-----------2----2------|

                   All    my         dreams  can     come    true!

=========== Chorus 1

   G5                                D/F#                    Dsus4

e|-3---------------3-------3-------|-2---------------2-------3-------|
B|-3---------------3-------3-------|-3---------------3-------3-------|
G|-0---------------0-------0-------|-2---------------2-------2-------|
D|-0---------------0-------0-------|-0---------------0-------0-------|
A|---------------------------------|---------------------------------|
E|-3---------------3-------3-------|-2---------------2-------2-------|

                   Blind             Faith           In      you

   Cadd9                             D/F#                    Dsus4

e|-3---------------3---------------|-2-------------------0---2-------|
B|-3---------------3---------------|-3-------------------3---3-------|
G|-0---------------0---------------|-2-------------------2---2-------|
D|-0---------------0---------------|-0-------------------0---0-------|
A|-3---------------3---------------|---------------------------------|
E|---------------------------------|-2-------------------2---2-------|

                   Oh      yeah!                         I   got

   G5                                D/F#                    Dsus4

e|-3---------------3-------3-------|-2---------------2-------3-------|
B|-3---------------3-------3-------|-3---------------3-------3-------|
G|-0---------------0-------0-------|-2---------------2-------2-------|
D|-0---------------0-------0-------|-0---------------0-------0-------|
A|---------------------------------|---------------------------------|
E|-3---------------3-------3-------|-2---------------2-------2-------|

   Bli.............lind    Faith                     In      you

   Cadd9                             D/F#

e|-3---------------3---------------|-2---------------2---------------|
B|-3---------------3---------------|-3---------------3---------------|
G|-0---------------0---------------|-2---------------2---------------|
D|-0---------------0---------------|-0---------------0---------------|
A|-3---------------3---------------|---------------------------------|
E|---------------------------------|-2---------------2---------------|

                   yeah...                                    and I'm

   Em                                D/F#

e|-0---------------0-------0-------|(2)--------------2---2-----------|
B|-0---------------0-----------0---|(3)--------------3-------3-------|
G|-0---------------0---------------|-2---------------2-----------2---|
D|-2---------------2---------------|-0---------------0---------------|
A|-2---------------2---------------|---------------------------------|
E|-0-------0-------0---------------|-2-------2-------2---------------|

   Not     sure            If        I       de      serve   a

   G5      A7sus4  Bm      Cadd9                     Cadd9

e|-3------(3)-----(3)------3-------|-----------------3---------------|
B|-3------(3)-----(3)------3-------|-----------------3---------------|
G|-0-----------------------0-------|-----------------0---------------|
D|-0-----------------------2-------|-----------------2---------------|
A|---------0-------2-------3-------|-----------------3---------------|
E|-3-------------------------------|---------------------------------|

   wo-     man     so      true                              but I

   A7sus4                 (Dmaj)                     A7sus4  Bsus4

e|-3-------------------------------|-----------------3---3---3---3---|
B|-3----------------------+7+------|-----------------3---3---3---3---|
G|-0--------------------------+7+--|-----------------0---0---0---0---|
D|-2-------------------------------|+7+--------------2---2---2---2---|
A|-0-------------------------------|-----------------0---0---2---2---|
E|---------------------------------|---------------------------------|
                           |-harmonic|
   Love...

   Cadd9                             D/F#                    Dsus4

e|-3---------------3---------------|-2---2---2---2-------2---3---3---|
B|-3---------------3---------------|-3---3---3---3-------3---3---3---|
G|-0---------------0---------------|-2---2---2---2-------2---2---2---|
D|-0---------------0---------------|-0---0---0---0-------0---0---0---|
A|-3---------------3---------------|---------------------------------|
E|---------------------------------|-2---2---2---2-------2---2---2---|

                                      That   You     THINK I do!

=========== Jam (rythem guitar only) - SOLO for Guitar 2 at end of song

   Em                                Csus2

e|-0-----0---------3---------------|-3-----3---------3---------------|
B|-0-----0---------3---------------|-3-----3---------3---------------|
G|-0-----0---------0---------------|-0-----0---------0---------------|
D|-2-----2---------2---------------|-0-----0---------0---------------|
A|-2-----2---------2---------------|-3-----3---------3---------------|
E|-0-----0---------0---------------|---------------------------------|

   Em                    Csus2       D

e|-3-----3---------------3---------|-2---------------2--h3-----------|
B|-3-----3---------------3---------|-3---------------3--(3)----------|
G|-0-----0---------------0---------|-2---------------2--(2)----------|
D|-2-----2---------------0---------|-0---------------0--(0)----------|
A|-2-----2---------------3---------|---------------------------------|
E|-0-----0-------------------------|---------------------------------|

   Em                                Csus2

e|-0-----0---------3---------------|-3-----3---------3---------------|
B|-0-----0---------3---------------|-3-----3---------3---------------|
G|-0-----0---------0---------------|-0-----0---------0---------------|
D|-2-----2---------2---------------|-0-----0---------0---------------|
A|-2-----2---------2---------------|-3-----3---------3---------------|
E|-0-----0---------0---------------|---------------------------------|

   Em                    Csus2       D

e|-3-----3---------------3---------|-2---------------2--h3-----------|
B|-3-----3---------------3---------|-3---------------3--(3)----------|
G|-0-----0---------------0---------|-2---------------2--(2)----------|
D|-2-----2---------------0---------|-0---------------0--(0)----------|
A|-2-----2---------------3---------|---------------------------------|
E|-0-----0-------------------------|---------------------------------|

   Em                                Csus2

e|-0-----0---------3---------------|-3-----3---------3---------------|
B|-0-----0---------3---------------|-3-----3---------3---------------|
G|-0-----0---------0---------------|-0-----0---------0---------------|
D|-2-----2---------2---------------|-0-----0---------0---------------|
A|-2-----2---------2---------------|-3-----3---------3---------------|
E|-0-----0---------0---------------|---------------------------------|

                                           Ooh!

   Em                     Csus2      D                   Dsus4

e|-3-----3---------------3---------|-2---------------2---3-----------|
B|-3-----3---------------3---------|-3---------------3---3-----------|
G|-0-----0---------------0---------|-2---------------2---2-----------|
D|-2-----2---------------0---------|-0---------------0---0-----------|
A|-2-----2---------------3---------|---------------------------------|
E|-0-----0-------------------------|---------------------------------|

=========== Bridge 3

   Cadd9

e|-3-------------------------------|---------------------------------|
B|-3-------------------------------|---------------------------------|
G|-0-------------------------------|---------------------------------|
D|-0-------------------------------|-0-------0-----------------------|
A|-3-------------------------------|-3-------3------------------/7---|
E|---------------------------------|---------------------------------|
                                     |-light-|

                   You     and       faith    be     side  me

   D/F#                              Cadd9

e|-2---------------2-------2-------|-3---------------3-------3-------|
B|-3---------------3-------3-------|-3---------------3-------3-------|
G|-2---------------2-------2-------|-0---------------0-------0-------|
D|-0-------------------------------|-0---------------0-------0-------|
A|---------------------------------|-3---------------3-------3-------|
E|-2-------------------------------|---------------------------------|
                   |-light-|

                   When Im feelin    Stron   ger     ev      vry  day!

=========== Chorus 2

   G5                                D/F#                    Dsus4

e|-3---------------3-------3-------|-2---------------2-------3-------|
B|-3---------------3-------3-------|-3---------------3-------3-------|
G|-0---------------0-------0-------|-2---------------2-------2-------|
D|-0---------------0-------0-------|-0---------------0-------0-------|
A|---------------------------------|---------------------------------|
E|-3---------------3-------3-------|-2---------------2-------2-------|

  (day!)                                      Oh!        In  you!
Background vocals: Blind             Faith           In      you

   Cadd9                             D/F#                    Dsus4

e|-3---------------3---------------|-2-------------------0---2-------|
B|-3---------------3---------------|-3-------------------3---3-------|
G|-0---------------0---------------|-2-------------------2---2-------|
D|-0---------------0---------------|-0-------------------0---0-------|
A|-3---------------3---------------|---------------------------------|
E|---------------------------------|-2-------------------2---2-------|

                   Oh      yeah!                         I   got

   G5                                D/F#                    Dsus4

e|-3---------------3-------3-------|-2---------------2-------3-------|
B|-3---------------3-------3-------|-3---------------3-------3-------|
G|-0---------------0-------0-------|-2---------------2-------2-------|
D|-0---------------0-------0-------|-0---------------0-------0-------|
A|---------------------------------|---------------------------------|
E|-3---------------3-------3-------|-2---------------2-------2-------|

   Bli.............lind    Faith                     In      you

   Cadd9                             D/F#

e|-3---------------3---------------|-2---------------2---------------|
B|-3---------------3---------------|-3---------------3---------------|
G|-0---------------0---------------|-2---------------2---------------|
D|-0---------------0---------------|-0---------------0---------------|
A|-3---------------3---------------|---------------------------------|
E|---------------------------------|-2---------------2---------------|

                   It's    true!     Oh     yeah

   G5                                D/F#                    Dsus4

e|-3---------------3---3-----------|-2---------------2---2---3-------|
B|-3---------------3-------3-------|-3---------------3-----------3---|
G|-0---------------0-----------0---|-2---------------2---------------|
D|-0---------------0---------------|-0---------------0---------------|
A|---------------------------------|---------------------------------|
E|-3---------------3---------------|-2---------------2---------------|

                           Blind     Faith           In      you

   Cadd9                             D/F#            Dsus4

e|-3---------------3---3-----------|-2-----------2---3---------------|
B|-3---------------3-------3-------|-3-------3-----------3-----------|
G|-0---------------0-----------0---|-2-----------------------0-------|
D|-0---------------0---------------|-0---------------------------0---|
A|-3---------------3---------------|---------------------------------|
E|---------------------------------|-2-------------------------------|

                   Oh      yeah!                         I   got

   G5                                D/F#                    Dsus4

e|-3---------------3---3-----------|-2---------------2---2---3-------|
B|-3---------------3-------3-------|-3---------------3-----------3---|
G|-0---------------0-----------0---|-2---------------2---------------|
D|-0---------------0---------------|-0---------------0---------------|
A|---------------------------------|---------------------------------|
E|-3---------------3---------------|-2---------------2---------------|

   Bli.............lind    Faith                     In      you.
   (softly)

   Cadd9                             D/F#            Dsus4

e|-3---------------3---3-----------|-2-----------2---3---------------|
B|-3---------------3-------3-------|-3-------3-----------3-----------|
G|-0---------------0-----------0---|-2-----------------------0-------|
D|-0---------------0---------------|-0---------------------------0---|
A|-3---------------3---------------|---------------------------------|
E|---------------------------------|-2-------------------------------|

                                                              and I'm

   Em                                D/F#

e|-0---------------0-------0-------|(2)--------------2---2-----------|
B|-0---------------0-----------0---|(3)--------------3-------3-------|
G|-0---------------0---------------|-2---------------2-----------2---|
D|-2---------------2---------------|-0---------------0---------------|
A|-2---------------2---------------|---------------------------------|
E|-0-------0-------0---------------|-2-------2-------2---------------|

   Not     sure            If        I       de      serve   a

   G5      A7sus4  Bm      Cadd9                     Cadd9

e|-3------(3)-----(3)------3-------|---------------------------------|
B|-3------(3)-----(3)------3-------|---------------------------------|
G|-0-----------------------0-------|---------------------------------|
D|-0-----------------------0-------|---------------------------------|
A|---------0-------2-------3-------|-------------------------3---2---|
E|-3-------------------------------|---------------------------------|

   wo-     man     so      true

   A7sus4                            D                       Dsus4

e|-----------------0---------------|-----0-----------2-------3-------|
B|-3-------------------3-----------|---------3-----------3-----------|
G|-0-----------0-----------2-------|-2-----------2-------------------|
D|-2-------------------------------|---------------------------------|
A|-0-------------------------------|---------------------------------|
E|---------------------------------|---------------------------------|

                                     I                           love

   Cadd9                             D/F#

e|-3-------------------3-----------|---------------------------------|
B|-3-----------3-----------3-------|---------------------------------|
G|-0---------------0-----------0---|---------------------------------|
D|-0-------------------------------|-------------------------0-------|
A|-3-------------------------------|-2---3-/-5-----------------------|
E|---------------------------------|-----------------3---------------|

                                     That    You     Think I Do...

=========== Outro

   Em                                Csus2

e|-3---------------3---------------|-----------------3---------------|
B|-3-------------------3-----------|---------------------3-----------|
G|-0-----------0-----------0-------|-------------0-----------0-------|
D|-2-------2-------------------2---|---------0------------------(0)--|
A|-2-------------------------------|/3-------------------------------|
E|-0-------------------------------|---------------------------------|
   |-arpeggio strum low to high

                                                             Yeah...

   G           D/F#        Dsus4     D

e|---------------------------------|-2-------------------------------|
B|---------------------------------|-3-------------------------------|
G|---------------------------------|-2-------------------------------|
D|---------0-----------0-----------|-0-------------------------------|
A|-----2-----------0-----5/7-------|---------------------------------|
E|-3-----------2-------------------|(2)------------------------------|

                         Ooooo.......................................
                         (softly)


=========== Jam Solo:

=========== Solo (note: measure is enlarged for accuracy)

   1               2               3               4
   |---|---|---|---|---|---|---|---|---|---|---|---|---|---|---|

e|---------------------------------12--p10------------------12-----|
B|------------------------------------------12----p10--h12---------|
G|-----------------------------------------------------------------|
D|-----------------------------------------------------------------|
A|-----------------------------------------------------------------|
E|-----------------------------------------------------------------|
                                   |----3----|     |----3----------|

   1               2               3               4
   |---|---|---|---|---|---|---|---|---|---|---|---|---|---|---|

e|-10--------------12--------------------------------------------|
B|----------------------------------------------|1)10------8-----|
G|---------------------------------------------------------------|
D|---------------------------------------------------------------|
A|---------------------------------------------------------------|
E|---------------------------------------------------------------|

   1               2               3               4
   |---|---|---|---|---|---|---|---|---|---|---|---|---|---|---|

e|---------------------------------------------------------------|
B|-10-------------------------------------------|1)10------8-----|
G|---------9-------9---------------------------------------------|
D|---------------------------------------------------------------|
A|---------------------------------------------------------------|
E|---------------------------------------------------------------|

   1               2               3               4
   |---|---|---|---|---|---|---|---|---|---|---|---|---|---|---|

e|---------------------------------------------------------------|
B|-7-------------------------------------------------------------|
G|---------7-------7---------------------------------------------|
D|-------------------------------------------------9-------9-----|
A|---------------------------------------------------------------|
E|---------------------------------------------------------------|

   1               2               3               4
   |---|---|---|---|---|---|---|---|---|---|---|---|---|---|---|

e|---------------------------------------------------------------|
B|---------------------------------------------------------------|
G|---------7-----------------------------------------------------|
D|-9---------------9-------7-------9-------8-------7-------5-----|
A|---------------------------------------------------------------|
E|---------------------------------------------------------------|

   1               2               3               4
   |---|---|---|---|---|---|---|---|---|---|---|---|---|---|---|

e|---------------------------------------------------------------|
B|---------------------------------------------------------------|
G|---------------------------------------------------------------|
D|-7---/---9---\---7-------------------------------7---\---5-----|
A|---------------------------------------------------------------|
E|---------------------------------------------------------------|

   1               2               3               4
   |---|---|---|---|---|---|---|---|---|---|---|---|---|---|---|

e|---------------------------------------------------------------|
B|-----------------15(1|-----------------------------------------|
G|-----------------------------|.5)14--------------12------------|
D|---------------------------------------------------------------|
A|-7-------------------------------------------------------------|
E|---------------------------------------------------------------|

   1               2               3               4
   |---|---|---|---|---|---|---|---|---|---|---|---|---|---|---|

e|---------------------------------------------------------------|
B|---------------------------------------------------------------|
G|-14--14--/16-\---14--------------------------------------------|
D|---------------------------------------------------------------|
A|---------------------------------------------------------------|
E|---------------------------------------------------------------|

   1               2               3               4
   |---|---|---|---|---|---|---|---|---|---|---|---|---|---|---|

e|-----------------------------------------------------------12----|
B|-------------------------------------------------12--------------|
G|---------------------------------12---14--/16---------14---------|
D|----------------------12---14------------------------------------|
A|------10---12---/14----------------------------------------------|
E|-12--------------------------------------------------------------|
   |-----3----|    |-----3----|    |-----3----|    |-----3---------|

   1               2               3               4
   |---|---|---|---|---|---|---|---|---|---|---|---|---|---|---|

e|--------12-----------------------------------------------------|
B|-15(1|------15(1|----------------------------------------------|
G|---------------------------------------------------------------|
D|---------------------------------------------------------------|
A|---------------------------------------------------------------|
E|---------------------------------------------------------------|

                                   Oh....

   1               2               3               4
   |---|---|---|---|---|---|---|---|---|---|---|---|---|---|---|

e|/19--------------17------15------17--------------15-----h17----|
B|-----------------------------------------17--------------------|
G|---------------------------------------------------------------|
D|---------------------------------------------------------------|
A|---------------------------------------------------------------|
E|---------------------------------------------------------------|

   1               2               3               4
   |---|---|---|---|---|---|---|---|---|---|---|---|---|---|---|

e|---------------------------------------------------------------|
B|-15----------------------------------------------15------15\---|
G|---------------------------------------------------------------|
D|---------------------------------------------------------------|
A|---------------------------------------------------------------|
E|---------------------------------------------------------------|

   1               2               3               4
   |---|---|---|---|---|---|---|---|---|---|---|---|---|---|---|

e|---------------------------------------------------------------|
B|-13------------------------------------------------------------|
G|---------------------------------------------------------------|
D|---------------------------------------------------------------|
A|---------------------------------------------------------------|
E|---------------------------------------------------------------|

                                   You             and
                                                              (faith beside me)

===============================================================================


Legend:

| /   slide up
| \   slide down
| ^   accent note on downstroke
| h   hammer-on
| p   pull-off
| ~   vibrato
| +   harmonic
| x   rest
| ( ) ghost note
| |1) Pre-bend up 1 step, strike note and release
| |.5) Pre-bend up 1/2 step, strike note and release
| (1| Strike note and bend up 1 step


===============================================================================





Comments


Popular Warrant tabs & chords
D.R.F.S.R Bass Tabs
I Saw Red Chords
Big Talk Tabs
Blind Faith Tabs
Down Boys 1 Tabs
Heaven Tabs
Mr. Rainmaker Tabs
You're The Only Hell Your Mama Ever Raised Tabs
Drfsr Ukulele
Home Ukulele


Song lyrics



↑ Back to top | Tablatures and chords are parodies/interpretations of the original songs. You may use it for private study, scholarship, research or language learning purposes only
© 2014 AZChords.com Contact us | Privacy policy | DMCA | Add/correct tabs | Request tabs | Top 50 tabs