» » »

Warpaint, Stars Bass tabs (ver.1)

Artists:  A B C D E F G H I J K L M N O P Q R S T U V W X Y Z # 

Stars Bass tabs (ver.1)

Warpaint Tabs
Rating:
4/5 (2 votes)
Stars lessons Tabs too difficult? Try these video lessons and learn fast
                -------------------------------------------------------------------------------
-------------------------------------------------------------------------------


Tuning:Standard

Any feedback would be appreciated. Enjoy ;D

[PART 1] (0:09-1:33)
G -------9-9------9-9------9-9--------9----------4-4------4-4-------------------|
D ------------------------------------------------------------------------------|
A ------------------------------------------------------------------------------|
E --7-7-------7---------7----------7------7\3-3--------3---------2-2--3h5-5--3--|

[PART 2] (1:34-1:45)       (x2)
G --------------------------|--------|
D -------5------------------|--------|
A --------------------------|--------|
E --3-3-----2-2--3h5-5--3---|--/7----|

[PART 3] (2:02-4:00)
G ----------------------------------------------------------------|
D ----------------------------------------------------------------|
A -----------------------------7----------------------------------|
E --7-7-7-7-7-7-7-10-7-7-10-10---10\3-3-3-3-3-3-3-2-2-2-3h5-5--3--|

[PART 4] (4:03-5:13)                     (x13)
G -----------------------------------------|----------------------------------------|
D -------9-9------9-9-------9-9------------|-------5-5-------5-5-------5-5----------|
A -----------------------------------------|----------------------------------------|
E --7-7------7-7------7-7-------7/10-10----|--3-3------3-3-------3-3-------3/5-5----|
[CONT'D] (5:14-5:24)
G ----------------------------------------------------------------------------------|
D -------9-9------9-9-------9-9-------------------5-5-------5-5-------5-5-----------|
A ----------------------------------------------------------------------------------|
E --7-7------7-7------7-7-------7/10-10------3-3------3-3-------3-3-------3/5-5-----|

[PART 5] (5:24-5:44)                     
G ---------------------------------------------------------------------------------|
D -------9-9------9-9-------9-9-------------------5-5-------5-5--------------------|
A ---------------------------------------------------------------------------------|
E --7-7------7-7------7-7-------7/10-10------3-3------3-3-------2-2--3h5-5--3------|

[PART 6] (5:45-6:14)
G ----------------------------------------------------------------|
D ----------------------------------------------------------------|
A -----------------------------7----------------------------------|
E --7-7-7-7-7-7-7-10-7-7-10-10---10\3-3-3-3-3-3-3-2-2-2-3h5-5--3--|

[END ON]
G ----|
D ----|
A ----|
E -/7-|

| /  slide up
| \  slide down
| h  hammer-on
| p  pull-off
| ~  vibrato
| +  harmonic
| x  Mute note
===============================================================================
            

comments powered by Disqus
↑ Back to top | Warpaint Bass for Stars. Lyrics for acoustic guitar and electric guitar. Tablatures and chords are parodies/interpretations of the original songs. You may use it for private study, scholarship, research or language learning purposes only