» » »

Warpaint, Shadow Tabs (ver.1)

Artists:  A B C D E F G H I J K L M N O P Q R S T U V W X Y Z # 

Shadow Tabs (ver.1)

Warpaint Tabs
 Rating:
4/5 (4 votes)
Shadow lessons Tabs too difficult? Try these video lessons and learn fast
1
                -------------------------------------------------------------------------------
                             SONG NAME - Band Name
-------------------------------------------------------------------------------

Tuning: EADGBe
v strum up
^strum down

The songs in a weird timing like 5/4 which is why theyres
five chords per bar. But its a simple song so easy to play with out
thinking about it.

also between each chord you can do a muted strum.

e|--2--2--2--2----2--2--2--2----2--2--2--2----3--3--3--3----3--3--3--3-----|
B|--3--3--3--3----3--3--3--3----2--2--2--2----2--2--2--2----3--3--3--3-----|
G|--4--4--4--4----4--4--4--4----2--2--2--2----2--2--2--2----4--4--4--4-----|
D|--4--4--4--4----4--4--4--4----4--4--4--4----2--2--2--2----5--5--5--5-----|
A|--2--2--2--2----2--2--2--2----4--4--4--4----0--0--0--0----5--5--5--5-----|
E|--2--2--2--2----2--2--2--2----2--2--2--2----0--0--0--0----3--3--3--3-----|
    ^  ^  v  ^    ^  ^  v  ^    ^  ^  v  ^    ^  ^  v  ^    ^  ^  v  ^


the kind of chorus part is a little diffrent though you cant hear the guitar 
properly i watched them play it live and these are the notes 




e|--0--0--0--0----0--0--0--0----3--3--3--3----x--x--x--x-------------------|
B|--0--0--0--0----0--0--0--0----2--2--2--2----8--8--8--8-------------------|
G|--0--0--0--0----0--0--0--0----2--2--2--2----9--9--9--9-------------------|
D|--2--2--2--2----2--2--2--2----2--2--2--2----9--9--9--9-------------------|
A|--2--2--2--2----2--2--2--2----0--0--0--0----x--x--x--x-------------------|
E|--0--0--0--0----0--0--0--0----0--0--0--0----x--x--x--x-------------------|



just before the drums come in the second time its plucked but you just keep your hands
in  the same shape as the chord


e|-----------------------------------------------------3-----------------|
B|-----3-------------3----------------------------2----------------------|
G|-----------4-------------4----------4--------------2-------------------|
D|--------4-------------4----------4-----4--------------------5-----5----|
A|--2-------------2----------------------------0-----------------5-------|
E|------------------------------2--------------------------3-------------|


and thats it feel free to message me if i missed somthing or you have somthing to
add :)



************************************

| /   slide up
| \   slide down
| h   hammer-on
| p   pull-off
| ~   vibrato
| +   harmonic
| x   Mute note
| b   Bend
| pb  Pre-bend
| br  Bend release
| pbr Pre-bend release
| brb Bend release bend

************************************
            
Submit corrections

comments powered by Disqus
↑ Back to top | Warpaint Tabs for Shadow. Lyrics for acoustic guitar and electric guitar. 1 Tablatures and chords are parodies/interpretations of the original songs. You may use it for private study, scholarship, research or language learning purposes only