>
 >
The Ballad Of Bones 2

The Ballad Of Bones 2 Guitar Tabs

Warp 11 - The Ballad Of Bones 2 chords, tabs, tablatures, lyrics

Guitar lessons | Add/correct | Request | Top 50 tabs Artists:  A B C D E F G H I J K L M N O P Q R S T U V W X Y Z 0-9

The Ballad Of Bones 2 Guitar Tabs – Warp 11

CD, Sheet music, Poster

Do you like The Ballad Of Bones 2? Share with your friends now
Tabs
The Ballad of Bones 2
Warp 11
It抯 dead jim

Intro:
     
e:----3-3-------------------3-3-0-x----------3-3-----------------2-2-2-3-2-|
B:----3-3-------------------3-3-3-3----------3-3-----------------3-3-3-3-3-|
G:----0-0-------------------0-0-0-0----------0-0-----------------2-2-2-2-2-|
D:----0-0-----------0-------0-0-0-0----------0-0---------0-0h2-0-0-0-0-0-0-|
A:----2-2-----0h2-----2h0---2-2-2-2----------2-2----0h2--------------------|
E:--3---------------------3----------------3-------------------------------|

e:----3-3---------------3-3-0-x------3--2--3-------3𦌿--|
B:----3-3---------------3-3-3-3------3--3--3-------3𦠫--|
G:----0-0---------------0-0-0-0------0--2--0-------0𦌼--|
D:----0-0-------0-------0-0-0-0------0--0--0-------0𥥤--|
A:----2-2---0h2---2h0---2-2-2-2------2-----2-------2---2--|
E:-3------------------3-------------3-----3-------3---3---|


Verse 1:

G                                 C
I had a job washing dishes at an old bar and grill
G                           D        Dsus2  D
After hours I drink like a fool
G                             C
With a mighty good friend who happened to bartend
     G          D          G
His way through medical school
G                                 C
He was a young star fleet doctor; about fell off his rocker
G                       D      Dsus2   D 
when his assignment came in
G                                 C
Country boys born and raised at the stars we did gaze
G                       D             G
The next morning he left stinking of gin
Chorus:
       C                   G
Well, McCoy, my boy, come mix me a drink
     C                       D
Before the night抯 over I抣l puke in the sink
          G                          C
And we抣l cry till we laugh and we抣l both shit our pants
G                       D               G
You抮e the best drinking friend I抳e ever had 
G-D-G

Verse 2: (same as v1)
He spent many a year in danger and fear
On sailing a ship beyond the stars
So imagine my surprise when I heard he had died
In his bed 50 million miles this side of Mars

::Repeat Chorus::

Verse 3:
This old bar gets lonely around this time of night
And lonely is why I抦 drinking for two
As I scrub out the stains and mop up the goo
In the home to the only Bones I ever knew
G             
Dammit Jim
Dammit Jim
Let抯 pour one more round

::Repeat Chorus::

::End on slow down pick of G::





Comments


Popular Warp 11 tabs & chords
Betazoid Mind Fuck Chords
Boldly Go Down On Me Chords
Sulu Chords
The Saddest Song Ever Written About Star Trek Chords
What Would William Shatner Do Chords
Betazoid Mind Fuck Ukulele
Jerk My Kirk Ukulele
Kill Klingons Ukulele
She Make It So Ukulele
Song For People Who Never Watch Star Trek Ukulele


Song lyrics



↑ Back to top | Tablatures and chords are parodies/interpretations of the original songs. You may use it for private study, scholarship, research or language learning purposes only
© 2014 AZChords.com Contact us | Privacy policy | DMCA | Add/correct tabs | Request tabs | Top 50 tabs