» » »

Warp 11, The Ballad Of Bones Tabs (ver.1)

Artists:  A B C D E F G H I J K L M N O P Q R S T U V W X Y Z # 

The Ballad Of Bones Tabs (ver.1)

Warp 11 Tabs
Rating:
0/5 (0 votes)
Hard to play? Try these video lessons and learn fast.
                "(2)
The Ballad of Bones 2
Warp 11
It’s dead jim

Intro:
     
e:----3-3-------------------3-3-0-x----------3-3-----------------2-2-2-3-2-|
B:----3-3-------------------3-3-3-3----------3-3-----------------3-3-3-3-3-|
G:----0-0-------------------0-0-0-0----------0-0-----------------2-2-2-2-2-|
D:----0-0-----------0-------0-0-0-0----------0-0---------0-0h2-0-0-0-0-0-0-|
A:----2-2-----0h2-----2h0---2-2-2-2----------2-2----0h2--------------------|
E:--3---------------------3----------------3-------------------------------|

e:----3-3---------------3-3-0-x------3--2--3-------3—2—3--|
B:----3-3---------------3-3-3-3------3--3--3-------3—3—3--|
G:----0-0---------------0-0-0-0------0--2--0-------0—2—0--|
D:----0-0-------0-------0-0-0-0------0--0--0-------0—0—0--|
A:----2-2---0h2---2h0---2-2-2-2------2-----2-------2---2--|
E:-3------------------3-------------3-----3-------3---3---|


Verse 1:

G                                 C
I had a job washing dishes at an old bar and grill
G                           D        Dsus2  D
After hours I drink like a fool
G                             C
With a mighty good friend who happened to bartend
     G          D          G
His way through medical school
G                                 C
He was a young star fleet doctor; about fell off his rocker
G                       D      Dsus2   D 
when his assignment came in
G                                 C
Country boys born and raised at the stars we did gaze
G                       D             G
The next morning he left stinking of gin
Chorus:
       C                   G
Well, McCoy, my boy, come mix me a drink
     C                       D
Before the night’s over I’ll puke in the sink
          G                          C
And we’ll cry till we laugh and we’ll both sh*t our pants
G                       D               G
You’re the best drinking friend I’ve ever had 
G-D-G

Verse 2: (same as v1)
He spent many a year in danger and fear
On sailing a ship beyond the stars
So imagine my surprise when I heard he had died
In his bed 50 million miles this side of Mars

::Repeat Chorus::

Verse 3:
This old bar gets lonely around this time of night
And lonely is why I’m drinking for two
As I scrub out the stains and mop up the goo
In the home to the only Bones I ever knew
G             
Dammit Jim
Dammit Jim
Let’s pour one more round

::Repeat Chorus::

::End on slow down pick of G::
"            

comments powered by Disqus
↑ Back to top | Warp 11 Tabs for The Ballad Of Bones. Lyrics for acoustic guitar and electric guitar. Tablatures and chords are parodies/interpretations of the original songs. You may use it for private study, scholarship, research or language learning purposes only