>
 >
Yet Another Fallen Eve

Yet Another Fallen Eve Guitar Tabs

War Of Ages - Yet Another Fallen Eve chords, tabs, tablatures, lyrics

Guitar lessons | Add/correct | Request | Top 50 tabs Artists:  A B C D E F G H I J K L M N O P Q R S T U V W X Y Z 0-9

Yet Another Fallen Eve Guitar Tabs – War Of Ages

CD, Sheet music, Poster

Do you like Yet Another Fallen Eve? Share with your friends now
Tabs
War Of Ages
Arise & Conquer 

I know there's only 2 guitars, but they put in a third and fourth track so I tabbed it too.

This is number 7 on the album,
I will have more from this album tabbed out soon,
So rate it and leave comments.


Intro
 Gtr 1
D|-------------------------|    |-------------------------|
A|-------------------------|    |-------------------------|
F|-------------------------|    |-------------------------|
C|--15-12-0-14-10-0-10s12--|    |--15-12-0-14-10-0-10s12--|
G|-------------------------|    |-------------------------|
C|-------------------------| x4 |-------------------------| x4

 Gtr 2
D|-------------------------|    |--------------------------|
A|-------------------------|    |--------------------------|
F|-------------------------|    |--------------------------|
C|-------------------------|    |--------------------------|
G|-------------------------|    |---19-17-0-17-15-0-14-15--|
C|-------------------------|    |--------------------------| x4

 Gtr 3
D|-------------------------|    |--------------------------|
A|-------------------------|    |--------------------------|
F|-------------------------|    |--------------------------|
C|-------------------------|    |--0~~---------------------|
G|-------------------------|    |--0~~---------------------|
C|-------------------------|    |--0~~---------------------|

Chorus 1
 Gtr 1
D|-------------------------|-----------------------------|
A|-------------------------|-----------------------------|
F|-------------------------|--/12-10-9-7-7s10-9-7-5-5s9--|
C|-------------------------|-----------------------------|
G|--5-3-5--------5-3-5-----|--/10-8--7-5-5s8--7-5-3-3s7--|
C|--------000000-----------|-----------------------------|
PM        ******

 Gtr 2
D|-------------------------|------------------------------|
A|-------------------------|------------------------------|
F|-------------------------|------------------------------|
C|-------------------------|--5~~--------8~~--------10~~--|
G|--8-7-8--------8-7-8-----|--5~~--------8~~--------10~~--|
C|--------000000-----------|--5~~--------8~~--------10~~--|
PM        ******

 Gtr 1
D|---------------------------------|------------------------------|-------|
A|---------------------------------|------------------------------|-------|
F|---------------------------------|--s12-10-9-7-7s10-9-7-5-5s9---|-------|
C|---------------------------------|------------------------------|--0~~--|
G|--12-10-12--------5-3-5----------|--s10-8--7-5-5s8--7-5-3-3s7---|--0~~--|
C|-----------000000--------0-000---|------------------------------|--0~~--|
PM           ******        * ***

 Gtr 2
D|---------------------------------|------------------------------|-------|
A|---------------------------------|------------------------------|-------|
F|---------------------------------|------------------------------|-------|
C|---------------------------------|--5~~--------8~~--------10~~--|--0~~--|
G|--8--7--8---------8-7-8----------|--5~~--------8~~--------10~~--|--0~~--|
C|-----------000000--------0-000---|--5~~--------8~~--------10~~--|--0~~--|
PM           ******        * ***

Pre-Verse 1
 Gtr 1
D|-------------------|    |----------------------------|------------------------------|
A|-------------------|    |----------------------------|------------------------------|
F|-------------------|    |----------------------------|------------------------------|
C|-------------------|    |--7-3-0-5-2-0-2s3-----------|--7-3-0-5-2-0-2s3----5-----8--|
G|--8-5-0-7-3-0-3s5--|    |----------------------------|---------------------5-----8--|
C|-------------------| x4 |------------------00000000--|------------------00-5--00-8--|
PM                                           ********                     **    **

 Gtr 2
D|-------------------|    |----------------------------|------------------------------|
A|-------------------|    |----------------------------|------------------------------|
F|-------------------|    |----------------------------|------------------------------|
C|-------------------|    |----------------------------|---------------------5-----8--|
G|--8-5-0-7-3-0-3s5--|    |--8-5-0-7-3-0-3s5-----------|--8-5-0-7-3-0-3s5----5-----8--|
C|-------------------| x4 |------------------00000000--|------------------00-5--00-8--|
PM                                           ********                     **    **

 Gtr 1
D|-------------------|    |----------------------------|------------------------------|
A|-------------------|    |----------------------------|------------------------------|
F|-------------------|    |----------------------------|------------------------------|
C|-------------------|    |--7-3-0-5-2-0-2s3-----------|--7-3-0-5-2-0-2s3----5-----1--|
G|--8-5-0-7-3-0-3s5--|    |----------------------------|---------------------5-----1--|
C|-------------------| x4 |------------------00000000--|------------------00-5--00-1--|
PM                                           ********                     **    **

 Gtr 2
D|-------------------|    |----------------------------|------------------------------|
A|-------------------|    |----------------------------|------------------------------|
F|-------------------|    |----------------------------|------------------------------|
C|-------------------|    |----------------------------|---------------------5-----1--|
G|--8-5-0-7-3-0-3s5--|    |--8-5-0-7-3-0-3s5-----------|--8-5-0-7-3-0-3s5----5-----1--|
C|-------------------| x4 |------------------00000000--|------------------00-5--00-1--|
PM                                           ********                     **    **

Verse 1
 Gtr 1
D|----------------------------|-----------------------|----------------------------|----------|
A|----------------------------|-----------------------|----------------------------|----------|
F|----------------------------|-----------------------|----------------------------|----------|
C|--0-0-00--------------------|-----------------------|--0-0-00--------------------|--0-0-00--|
G|--0-0-00---3-5-3-0-3-0-3-5--|--0-0-00------3----5b--|--0-0-00---3-5-3-0-3-0-3-5--|--0-0-00--|
C|--0-0-00--------------------|--0-0-00---00---00-----|--0-0-00--------------------|--0-0-00--|
PM  * * **                       * * **   **   **        * * **                       * * **

 Gtr 2
D|----------------------------|-----------------------|----------------------------|----------|
A|----------------------------|-----------------------|----------------------------|----------|
F|----------------------------|-----------------------|----------------------------|----------|
C|--0-0-00--------------------|-----------------------|--0-0-00--------------------|--0-0-00--|
G|--0-0-00---7-8-7-3-7-3-7-8--|--0-0-00------8----7b--|--0-0-00---7-8-7-3-7-3-7-8--|--0-0-00--|
C|--0-0-00--------------------|--0-0-00---00---00-----|--0-0-00--------------------|--0-0-00--|
PM  * * **                       * * **   **   **        * * **                       * * **

 Gtr 1
D|-----------------------------|-----------------------|----------------------------|
A|-----------------------------|-----------------------|----------------------------|
F|-----------------------------|-----------------------|----------------------------|
C|--\0-0-00--------------------|-----------------------|--0-0-00--------------------|
G|--\0-0-00---3-5-3-0-3-0-3-5--|--0-0-00------3----5b--|--0-0-00---3-5-3-0-3-0-3-5--|
C|--\0-0-00--------------------|--0-0-00---00---00-----|--0-0-00--------------------|
PM   * * **                       * * **   **   **        * * **                     

 Gtr 1 (contd.)
D|---------------------------------------------------------------------|
A|---------------------------------------------------------------------|
F|---------------------------------------------------------------------|
C|-0-0-00--00-15-14-12-10-10-10-10-12-12-12-12-14-14-14-14-15-15-15-15-|
G|-0-0-00--00----------------------------------------------------------|
C|-0-0-00--00----------------------------------------------------------|
   * * **  **          *  *  *  *  *  *  *  *  *  *  *  *  *  *  *  *


 Gtr 2
D|-----------------------------|-----------------------|----------------------------|
A|-----------------------------|-----------------------|----------------------------|
F|-----------------------------|-----------------------|----------------------------|
C|--\0-0-00--------------------|-----------------------|--0-0-00--------------------|
G|--\0-0-00---7-8-7-3-7-3-7-8--|--0-0-00------8----7b--|--0-0-00---7-8-7-3-7-3-7-8--|
C|--\0-0-00--------------------|--0-0-00---00---00-----|--0-0-00--------------------|
PM   * * **                       * * **   **   **        * * **                     

 Gtr 2 (contd.)
D|---------------------------------------------------------------------|
A|---------------------------------------------------------------------|
F|---------------------------------------------------------------------|
C|-0-0-00--00-19-17-15-14-14-14-14-15-15-15-15-17-17-17-17-19-19-19-19-|
G|-0-0-00--00----------------------------------------------------------|
C|-0-0-00--00----------------------------------------------------------|
   * * **  **          *  *  *  *  *  *  *  *  *  *  *  *  *  *  *  *


 Gtr 3  (I think this is tapping)
D|---------------------------|
A|---------------------------|
F|--19-12-14-17-14-12-14-10--|
C|---------------------------|
G|---------------------------|
C|---------------------------| x 14

 Gtr 4  (I think this is tapping too)
D|---------------------------|
A|---------------------------|
F|--14-7--9--12-9--7--9--5---|
C|---------------------------|
G|---------------------------|
C|---------------------------| x 14

Chorus 2
 Gtr 1
D|---------------------------------|------------------------------|
A|---------------------------------|------------------------------|
F|---------------------------------|--s12-10-9-7-7s10-9-7-5-5s9---|
C|---------------------------------|------------------------------|
G|--12-10-12--------5-3-5----------|--s10-8--7-5-5s8--7-5-3-3s7---|
C|-----------000000--------0-000---|------------------------------|
PM           ******        * ***                                    \
                                                                     x4
 Gtr 2                                                              /
D|---------------------------------|------------------------------|
A|---------------------------------|------------------------------|
F|---------------------------------|------------------------------|
C|---------------------------------|--5~~--------8~~--------10~~--|
G|--8--7--8---------8-7-8----------|--5~~--------8~~--------10~~--|
C|-----------000000--------0-000---|--5~~--------8~~--------10~~--|
PM           ******        * ***

Pre-Verse 2
 Gtr 1 + 2
D|-----------------------------|------------------------------|
A|-----------------------------|------------------------------|
F|-----------------------------|------------------------------|
C|-----------------------------|----------------------5----8--|
G|--8-5-0-7-3-0-3s5------------|--8-5-0-7-3-0-3s5-----5----8--|
C|-------------------00000000--|-------------------00-5-00-8--|
PM                   ********                      **   **

 Gtr 1 + 2
D|-----------------------------|----------------------------------|
A|-----------------------------|----------------------------------|
F|-----------------------------|----------------------------------|
C|-----------------------------|----------------------------------|
G|--8-5-0-7-3-0-3s5------------|--8-5-0-7-3-0-3s5-----------------|
C|-------------------00000000--|-------------------00-8p5-00-7p3--|
PM                   ********                      **     ** 

 Gtr 1 + 2
D|-----------------------------|------------------------------|
A|-----------------------------|------------------------------|
F|-----------------------------|------------------------------|
C|-----------------------------|----------------------5----8--|
G|--8-5-0-7-3-0-3s5------------|--8-5-0-7-3-0-3s5-----5----8--|
C|-------------------00000000--|-------------------00-5-00-8--|
PM                   ********                      **   **

 Gtr 1
D|-----------------------------|----------------------------------------|
A|-----------------------------|----------------------------------------|
F|-----------------------------|----------------------------------------|
C|-----------------------------|--15-12-0-14-0-0-12-14-12-0-12-0-12h14--|
G|--8-5-0-7-3-0-3s5------------|----------------------------------------|
C|-------------------00000000--|----------------------------------------|
PM                   ********           *    * *          *    *


 Gtr 2
D|-----------------------------|----------------------------------------|
A|-----------------------------|----------------------------------------|
F|-----------------------------|----------------------------------------|
C|-----------------------------|--19-15-0-17-0-0-14-15-14-0-14-0-14h15--|
G|--8-5-0-7-3-0-3s5------------|----------------------------------------|
C|-------------------00000000--|----------------------------------------|
PM                   ********           *    * *          *    *

Verse 2
 Gtr 1
D|----------------------------|-----------------------|
A|----------------------------|-----------------------|
F|----------------------------|-----------------------|
C|--0-0-00--------------------|-----------------------|
G|--0-0-00---3-5-3-0-3-0-3-5--|--0-0-00------3----5b--|
C|--0-0-00--------------------|--0-0-00---00---00-----|
PM  * * **                       * * **   **   **      

 Gtr 1 (contd.)
D|----------------------------|---------------------------|
A|----------------------------|---------------------------|
F|----------------------------|-------------10-9--7--5-7--|
C|--0-0-00--------------------|--0-0-00-------------------|
G|--0-0-00---3-5-3-0-3-0-3-5--|--0-0-00-----8--7--5--3-5--|
C|--0-0-00--------------------|--0-0-00--00---------------|
PM  * * **                       * * **  **

 Gtr 2
D|----------------------------|-----------------------|
A|----------------------------|-----------------------|
F|----------------------------|-----------------------|
C|--0-0-00--------------------|-----------------------|
G|--0-0-00---7-8-7-3-7-3-7-8--|--0-0-00------8----7b--|
C|--0-0-00--------------------|--0-0-00---00---00-----|
PM  * * **                       * * **   **   **    

 Gtr 2 (contd.)
D|----------------------------|---------------------------|
A|----------------------------|---------------------------|
F|----------------------------|---------------------------|
C|--0-0-00--------------------|--0-0-00-----10-10-10-8-8--|
G|--0-0-00---7-8-7-3-7-3-7-8--|--0-0-00-----10-10-10-8-8--|
C|--0-0-00--------------------|--0-0-00--00-10-10-10-8-8--|
PM  * * **                       * * **  **

 Gtr 1
D|----------------------------|-----------------------|
A|----------------------------|-----------------------|
F|----------------------------|-----------------------|
C|--0-0-00--------------------|-----------------------|
G|--0-0-00---3-5-3-0-3-0-3-5--|--0-0-00------3----5b--|
C|--0-0-00--------------------|--0-0-00---00---00-----|
PM  * * **                       * * **   **   **      

 Gtr 1 (contd.)
D|----------------------------|-------------------------------|
A|----------------------------|-------------------------------|
F|----------------------------|-------------10-9--7--5-7-7~~--|
C|--0-0-00--------------------|--0-0-00-----------------------|
G|--0-0-00---3-5-3-0-3-0-3-5--|--0-0-00-----8--7--5--3-5-5~~--|
C|--0-0-00--------------------|--0-0-00--00-------------------| x2
  * * **                       * * **  **

 Gtr 2
D|----------------------------|-----------------------|
A|----------------------------|-----------------------|
F|----------------------------|-----------------------|
C|--0-0-00--------------------|-----------------------|
G|--0-0-00---7-8-7-3-7-3-7-8--|--0-0-00------8----7b--|
C|--0-0-00--------------------|--0-0-00---00---00-----|
PM  * * **                       * * **   **   **                              

 Gtr 2 (contd.)
D|----------------------------|-------------------------------|
A|----------------------------|-------------------------------|
F|----------------------------|-------------------------------|
C|--0-0-00--------------------|--0-0-00-----10-10-10-8-8-8~~--|
G|--0-0-00---7-8-7-3-7-3-7-8--|--0-0-00-----10-10-10-8-8-8~~--|
C|--0-0-00--------------------|--0-0-00--00-10-10-10-8-8-8~~--|
PM  * * **                       * * **  **

 Gtr 3 
D|---------------------------|
A|---------------------------|
F|--19-12-14-17-14-12-14-10--|
C|---------------------------|
G|---------------------------|
C|---------------------------| x 14

 Gtr 4  
D|---------------------------|
A|---------------------------|
F|--14-7--9--12-9--7--9--5---|
C|---------------------------|
G|---------------------------|
C|---------------------------| x 14

Pre-Solo
 Gtr 1
D|-----------------------------------------------------------------|
A|-----------------------------------------------------------------|
F|-----------------------------------------------------------------|
C|-----------------------------------------------------------------|
G|-----------------------------------------------------------------|
C|-8-8-8-8-8-8-8-8-8-8-8-8-8-8-8-8-0-0-0-0-0-0-0-0-0-0-0-0-0-0-0-0-| x2
PM * * * * * * * * * * * * * * * * * * * * * * * * * * * * * * * *

 Gtr 2
D|-----------------------------------------------------------------|
A|-----------------------------------------------------------------|
F|-----------------------------------------------------------------|
C|-15-(x4)-14-(x4)-12-(x4)-10-(x4)-15-(x4)-14-(x4)-12-(x4)-14-(x4)-|
G|-----------------------------------------------------------------|
C|-----------------------------------------------------------------| 
PM *       *       *       *       *       *       *       *

 Gtr 2 (contd.)
D|-------------------------------------------------------------------|
A|-------------------------------------------------------------------|
F|-------------------------------------------------------------------|
C|-15-(x4)-14-(x4)-12-(x4)-10-(x4)-19-(x4)-14-(x4)-12-(x4)-14-(x4)---|
G|-------------------------------------------------------------------|
C|-------------------------------------------------------------------| 
PM *       *       *       *       *       *       *       *

Solo
 Gtr 1
D|--------------------------------------------------------------------------------------------|
A|------------------15s18-17----------------------------------------15s18-17----17-18s20-18-17|
F|---19-14-19-17s14----------17----------------------19-14-19-17s14----------17---------------|
C|------------------------------17-19-17-15-17-19---------------------------------------------|
G|17----------------------------------------------17------------------------------------------|
C|--------------------------------------------------------------------------------------------|


D|--20fb22-20-17-15-13-15-17-15-13----13-------------13-15-17-20-18-17-15-13-------|
A|---------------------------------17----17-13-15-17-------------------------17-15-|
F|---------------------------------------------------------------------------------|
C|---------------------------------------------------------------------------------|
G|---------------------------------------------------------------------------------|
C|---------------------------------------------------------------------------------|

D|------------------------------------------------|
A|-----15----15s18-17-15----15----15s20-18-20-22--|
F|--14----14-------------14----14-----------------|
C|------------------------------------------------|
G|------------------------------------------------|
C|------------------------------------------------|


D|17-------15-15s17-15----------15-17-20-17-15-20-17-|
A|---15-18-------------18-15-15----------------------|
F|---------------------------------------------------|
C|---------------------------------------------------|
G|---------------------------------------------------|
C|---------------------------------------------------|

D|-------------------------------------------------|
A|--15-------18-17----15---------------------------|
F|-----14-17-------17----17-14----------------17-14|
C|-----------------------------15-17-17-14-15------|
G|-------------------------------------------------|
C|-------------------------------------------------|


D|17-------15-15s17-15----------15-17-20-17-15-20-17-|
A|---15-18-------------18-15-15----------------------|
F|---------------------------------------------------|
C|---------------------------------------------------|
G|---------------------------------------------------|
C|---------------------------------------------------|

D|-------------------------------------------------|
A|--15-------18-17----15---------------------------|
F|-----14-17-------17----17-14----------------17-14|
C|-----------------------------15-17-17-14-15------|
G|-------------------------------------------------|
C|-------------------------------------------------|

D|17-------15-15s17-15----------15-17-20-17-15-20-17-|
A|---15-18-------------18-15-15----------------------|
F|---------------------------------------------------|
C|---------------------------------------------------|
G|---------------------------------------------------|
C|---------------------------------------------------|

D|----------------------------------------------------|
A|--15-------18-17----15------------------------------|
F|-----14-17-------17----17-14----------------17-14~~-|
C|-----------------------------15-17-17-14-15---------|
G|----------------------------------------------------|
C|----------------------------------------------------|

 Gtr 2
D|-----------------------------------------------------------------|
A|-----------------------------------------------------------------|
F|-----------------------------------------------------------------|
C|-----------------------------------------------------------------|
G|-----------------------------------------------------------------|
C|-8-8-8-8-8-8-8-8-8-8-8-8-8-8-8-8-0-0-0-0-0-0-0-0-0-0-0-0-0-0-0-0-| 
PM * * * * * * * * * * * * * * * * * * * * * * * * * * * * * * * *  \
                                                                     x5
 Gtr 3                                                              /
D|-----------------------------------------------------------------|
A|-----------------------------------------------------------------|
F|-----------------------------------------------------------------|
C|-15-(x4)-14-(x4)-12-(x4)-10-(x4)-15-(x4)-14-(x4)-12-(x4)-14-(x4)-|
G|-----------------------------------------------------------------|
C|-----------------------------------------------------------------| 
PM *       *       *       *       *       *       *       *

Ending/Fade Out (While Gtr 1 holds the last 14)
 Gtr 2                                                                                    
D|---------------------------------------------------------------------------------|-------|
A|---------------------------------------------------------------------------------|-------|
F|---------------------------------------------------------------------------------|-------|
C|--15-15-15-15-14-14-14-14-12-12-12-12-10-10-10-10-15-15-0-14-0-15-0-14-12-10-12\-|--8~~--|
G|---------------------------------------------------------------------------------|--8~~--|
C|---------------------------------------------------------------------------------|--8~~--|
PM  *  *  *  *  *  *  *  *  *  *  *  *  *  *  *  *        *    *    *

 Gtr 3                                                                                     
D|---------------------------------------------------------------------------------|-------|
A|---------------------------------------------------------------------------------|-------|
F|---------------------------------------------------------------------------------|-------|
C|--19-19-19-19-14-14-14-14-12-12-12-12-10-10-10-10-20-19-0-17-0-19-0-17-15-14-15\-|--8~~--|
G|---------------------------------------------------------------------------------|--8~~--|
C|---------------------------------------------------------------------------------|--8~~--|
PM  *  *  *  *  *  *  *  *  *  *  *  *  *  *  *  *        *    *    *





Comments


Popular War Of Ages tabs & chords
Aftermath Bass Tabs
Absence Of Fear Tabs
All Consuming Fire Intro Tabs
Brothers In Arms Intro Tabs
Instrumental 2 Tabs
Instrumental 3 Tabs
Salvation Tabs
Salvation 1 Tabs
Salvation Intro 1 Tabs
Through The Flames Tabs


Song lyrics



↑ Back to top | Tablatures and chords are parodies/interpretations of the original songs. You may use it for private study, scholarship, research or language learning purposes only
© 2014 AZChords.com Contact us | Privacy policy | DMCA | Add/correct tabs | Request tabs | Top 50 tabs