» » »

Through The Flames Tabs (ver.1)

Artists:  A B C D E F G H I J K L M N O P Q R S T U V W X Y Z # 

Through The Flames Tabs (ver.1)

War Of Ages
Rating:
1/5 (2 votes)

Hard to play? Try these video lessons and learn fast.
                this is a great song by a great band any requests or corrections will be accepted

e|--------------------------------------------------------------------|
B|----------------------------13--------------------------------------|
G|----------14-14-12--1414-1512----15---------------------------------|
D|121212-10-----------------------------------------------------------| x?
A|--------------------------------------------------------------------|
E|--------------------------------------------------------------------|

e|----------------------------------------------------------------------|
B|---------------------------------------------13-----------------------|
G|--------141214--------10141012------------12-----12-10----------------|
D|-121012----------1012----------12--151215-----------------------------| x?
A|----------------------------------------------------------------------|
E|----------------------------------------------------------------------|
                                      . . .
chorus chords im not sure how many  times you play them
e|---------------------------------------------------------------------------|
B|---------------------------------------------------------------------------|
G|-----------------14121214--------------------------------------------------|
D|-9--1210-5-----------------------------------------------------------------|
A|-9-------5---10------------------------------------------------------------|
e|-9-------5---10------------------------------------------------------------|


ill post the solo later when i figure it out
            
Hard to play? Try these video lessons and learn fast. | Correct




comments powered by Disqus
↑ Back to top | Tablatures and chords are parodies/interpretations of the original songs. You may use it for private study, scholarship, research or language learning purposes only