>
 >
The Fall Of Pride

The Fall Of Pride Guitar Tabs

War Of Ages - The Fall Of Pride chords, tabs, tablatures, lyrics

Guitar lessons | Add/correct | Request | Top 50 tabs Artists:  A B C D E F G H I J K L M N O P Q R S T U V W X Y Z 0-9

The Fall Of Pride Guitar Tabs – War Of Ages

CD, Sheet music, Poster

Do you like The Fall Of Pride? Share with your friends now
Tabs
War Of Ages: The Fall Of Pride
Tuning: C# G# C# F# Bb Eb


/ = slide up
\ = slide down
h = hammer on
p = pull off
x = mute
. = palm mute
~ = let it ring
 = tremolo pick
* = pinched harmonic
<> = natural harmonic
p/ = pick slide
b() = bend + fret number you bend to


(0:00) Both
Eb|-----------------------------------------|
Bb|-----------------------------------------|
F#|-----------------------------------------|
C#|-8-7--2h3p2p0------8-7-2h3--8-7--2h3p2p0-|
G#|-8-7--2h3p2p0--00--8-7-2h3--8-7--2h3p2p0-|
C#|-8-7--2h3p2p0--00--8-7-2h3--8-7--2h3p2p0-|
                  ..

(0:03) Both
Eb|---------------------------|
Bb|---------------------------|
F#|---------------------------|
C#|-8p7p0-8p7p5---------------|
G#|-------------10p9p0-10p9p0-|
C#|---------------------------|

(0:05) Both
Eb|-----------------------------------------|
Bb|-----------------------------------------|
F#|-----------------------------------------|
C#|-8-7--2h3p2p0------8-7-2h3--8-7--2h3p2p0-|
G#|-8-7--2h3p2p0--00--8-7-2h3--8-7--2h3p2p0-|
C#|-8-7--2h3p2p0--00--8-7-2h3--8-7--2h3p2p0-|
                  ..

(0:09) Guitar 1        Guitar 2
Eb|---------------|---------------|
Bb|---------------|---------------|
F#|---------------|------------5/-|
C#|--------5h6-6/-|--------5h6----|
G#|----5-8--------|----5-8--------|
C#|-00------------|-00------------|
    .. . .          .. . .

(0:10) Both
Eb|-----------------------------------------|
Bb|-----------------------------------------|
F#|-----------------------------------------|
C#|-8-7--2h3p2p0------8-7-2h3--8-7--2h3p2p0-|
G#|-8-7--2h3p2p0--00--8-7-2h3--8-7--2h3p2p0-|
C#|-8-7--2h3p2p0--00--8-7-2h3--8-7--2h3p2p0-|
                  ..

(0:14) Both
Eb|---------------------------|
Bb|---------------------------|
F#|---------------------------|
C#|-8p7p0-8p7p5---------------|
G#|-------------10p9p0-10p9p0-|
C#|---------------------------|

(0:15) Both
Eb|------------------------------------------|
Bb|------------------------------------------|
F#|------------------------------------------|
C#|-8-7--2h3p2p0------8-7-2h3--8-7--2h3p2-0~-|
G#|-8-7--2h3p2p0--00--8-7-2h3--8-7--2h3p2-0~-|
C#|-8-7--2h3p2p0--00--8-7-2h3--8-7--2h3p2-0~-|
                  ..

(0:20) Guitar 1
Eb|-------------------------------------|
Bb|-------------------------------------|
F#|-------------------------------------|________
C#|-------------------------------------|        |
G#|-12p10p8-8h10-8p7-7/10-8-------------|        |
C#|-------------------------0-000-000-0-|        |
                            . ... ... .          |
                                                 |x4
Eb|----------------------------|                 |
Bb|----------------------------|                 |
F#|----------------------------|_________________|
C#|-------------------7--------|
G#|-5h7-8/10-8---8-10------8-7-|
C#|------------0--------10-----|
               .

(0:20) Guitar 2
Eb|----------------------------------|
Bb|----------------------------------|
F#|----------------------------------|____________
C#|-10p8p7-7h8-7p5-5/8-7-------------|            |
G#|----------------------------------|            |
C#|----------------------0-000-000-0-|            |
                         . ... ... .              |
                                                  |x4
Eb|-----------------------------|                 |
Bb|-----------------------------|                 |
F#|-7h9-10/12-10----------------|_________________|
C#|----------------7-8-10---7-5-|
G#|-----------------------7-----|
C#|--------------0--------------|
                 .

(0:41) Guitar 1
Eb|----------------------------------------------------|
Bb|----------------------------------------------------|
F#|----------------------------------------------------|
C#|-------------------7-5h7----------------------------|
G#|-----5h8-5---------------8-----------7h10-7---------|
C#|-000-------000-000---------0-0-0-000--------000-000-|
    ...       ... ...         . . . ...        ... ... |
                                                       |
Eb|--------------------------------------------------| |
Bb|--------------------------------------------------| |
F#|--------------------------------------------------|_|x2
C#|-8-7h8-5--------------------------10-8h10-7-------| |
G#|-------------------8h12-8-------------------------| |
C#|---------0-0-0-000--------000-000-----------0-0-0-| |
            . . . ...        ... ...           . . .   |
                                                       |
Eb|-------------------------------|                    |
Bb|-------------------------------|                    |
F#|-------------------------------|____________________|
C#|-----7-------5-------------7-5-|
G#|-8-------7-------5h8---7-------|
C#|---0---0---0---0-----0---0-----|
      .   .   .   .     .   .

(0:41) Guitar 2
Eb|----------------------------------------------------|
Bb|----------------------------------------------------|
F#|----------------------------------------------------|
C#|----------------------------------------------------|
G#|-000-------000-000---------0-0-0-000--------000-000-|
C#|-000-------000-000---------0-0-0-000--------000-000-|
    ...       ... ...         . . . ...        ... ... |
                                                       |
Eb|--------------------------------------------------| |
Bb|--------------------------------------------------| |
F#|--------------------------------------------------|_|x2
C#|--------------------------------------------------| |
G#|---------0-0-0-000--------000-000-----------0-0-0-| |
C#|---------0-0-0-000--------000-000-----------0-0-0-| |
            . . . ...        ... ...           . . .   |
                                                       |
Eb|---------------------------------|                  |
Bb|---------------------------------|                  |
F#|---------------------------------|__________________|
C#|---------------------------------|
G#|-5---8--------7-----8--------8-7-|
C#|---0---0-10-0---0-8---0-10-0-----|
      .   .    .   .     .    .

(1:02) Guitar 1
Eb|-------------------------------------|
Bb|-------------------------------------|
F#|-------------------------------------|________
C#|-------------------------------------|        |
G#|-12p10p8-8h10-8p7-7/10-8-------------|        |
C#|-------------------------0-000-000-0-|        |
                            . ... ... .          |
                                                 |x4
Eb|----------------------------|                 |
Bb|----------------------------|                 |
F#|----------------------------|_________________|
C#|-------------------7--------|
G#|-5h7-8/10-8---8-10------8-7-|
C#|------------0--------10-----|
               .

(1:02) Guitar 2
Eb|----------------------------------|
Bb|----------------------------------|
F#|----------------------------------|____________
C#|-10p8p7-7h8-7p5-5/8-7-------------|            |
G#|----------------------------------|            |
C#|----------------------0-000-000-0-|            |
                         . ... ... .              |
                                                  |x4
Eb|-----------------------------|                 |
Bb|-----------------------------|                 |
F#|-7h9-10/12-10----------------|_________________|
C#|----------------7-8-10---7-5-|
G#|-----------------------7-----|
C#|--------------0--------------|
                 .

(1:23) Guitar 1
Eb|--------------------------|
Bb|--------------------------|
F#|--------------------------|_________
C#|--------------------------|         |
G#|--------------------------|         |
C#|-2p0-2-0--7-9/-7-9/-0-7h9-|         |
             . .  . .    . .           |
                                       |
Eb|--------------------|               |
Bb|--------------------|               |
F#|--------------------|_______________|
C#|----------5555-7777-|               |
G#|----------3333-5555-|               |
C#|-2p0-2-0------------|               |
                                       |x2
Eb|--------------------------|         |
Bb|--------------------------|         |
F#|--------------------------|_________|
C#|--------------------------|         |
G#|--------------------------|         |
C#|-2p0-2-0--7-9/-7-9/-0-7h9-|         |
             . .  . .    . .           |
                                       |
Eb|--------------------|               |
Bb|--------------------|               |
F#|--------------------|_______________|
C#|----------5555-5555-|
G#|----------5555-5555-|
C#|-2p0-2-0--5555-4444-|

(1:23) Guitar 2
Eb|--------------------------------|
Bb|--------------------------------|
F#|--------------------------------|___________
C#|--------------------------------|           |
G#|--------------------------------|           |
C#|-2p0-2-0--10-12\-10-12\-0-10h12-|           |
              .  .   .  .     .  .             |
                                               |
(2nd time slide up)                            |
Eb|----------|-------------------------|       |
Bb|----------V-------------------------|       |
F#|---------(/)16p12----16p14p12-11----|_______|
C#|------------------14-------------12-|       |
G#|------------------------------------|       |
C#|-2p0-2-0----------------------------|       |
                                               |x2
Eb|--------------------------------|           |
Bb|--------------------------------|           |
F#|--------------------------------|___________|
C#|--------------------------------|           |
G#|--------------------------------|           |
C#|-2p0-2-0--10-12\-10-12\-0-10h12-|           |
              .  .   .  .     .  .             |
                                               |
Eb|---------14p10----14p10----12-|             |
Bb|---------------12-------12----|             |
F#|------------------------------|_____________|
C#|------------------------------|
G#|------------------------------|
C#|-2p0-2-0----------------------|

(1:44) Guitar 1
Eb|------------------------------------------------|
Bb|------------------------------------------------|
F#|------------------------------------------------|_____
C#|------------------------------------------------|     |
G#|-1--0--3--1--0--3-------------------------|     |
C#|-------------------------4--3--6--4--3--6-|     |
    .   .   .   .   .   .   .   .   .   .   .   .        |
                                                         |
Eb|------------------------------------------------------|
Bb|------------------------------------------------------|
F#|------------------------------------------------------|
C#|------------------------------------------------------|
G#|-1--0--3--1--0--3-------------------------------|
C#|-------------------------4--3--6-7--4--3--7-6-|
    .   .   .   .   .   .   .   .   .  .   .   .   .  .

(1:44) Guitar 2
Eb|------------------------------------|
Bb|------------------------------------|
F#|------------------------------------|______
C#|-10--9--12-13--10--9--13-12-|      |
G#|------------------------------------|      |
C#|------------------------------------|      |
     .   .    .   .    .   .    .   .         |
                                              |x2
Eb|--------------------------------|          |
Bb|--------------------------------|          |
F#|--------------------------------|__________|
C#|-7--6--9-10--7--6--10-9-|
G#|--------------------------------|
C#|--------------------------------|
    .   .   .   .   .   .    .  .

(1:44) solo
Eb|-----------------------|
Bb|-----------------------|
F#|-----------------------|
C#|-----------------------|
G#|-10*b(11)+(whammy bar)-|
C#|-----------------------|

(1:49)
Eb|-17p16p14-16p14p13-17p16p14-16p14p13-|
Bb|-------------------------------------|
F#|-------------------------------------|
C#|-------------------------------------|
G#|-------------------------------------|
C#|-------------------------------------|

Eb|-------------------------------------|
Bb|-16p15p13-15p13p12-16p15p13-15p13p12-|
F#|-------------------------------------|
C#|-------------------------------------|
G#|-------------------------------------|
C#|-------------------------------------|

Eb|-------------------------------------|
Bb|-------------------------------------|
F#|-15p14p12-14p12p11-15p14p12-14p12p11-|
C#|-------------------------------------|
G#|-------------------------------------|
C#|-------------------------------------|

Eb|----------------------|
Bb|----------------------|
F#|----------------------|
C#|-13p12p10-12p10p9-12*-|
G#|----------------------|
C#|----------------------|

(1:54-1:59) I have no idea.

(1:59)
Eb|-17h21-17h21-17h21-17h21-16h20-16h20-16h20-16h20-|
Bb|-------------------------------------------------|
F#|-------------------------------------------------|
C#|-------------------------------------------------|
G#|-------------------------------------------------|
C#|-------------------------------------------------|


Eb|-17h21-17h21-17h21-17h21-----------------------|
Bb|-----------------------------------------------|
F#|-----------------------------------------------|
C#|-----------------------------------------------|
G#|-------------------------10*b(11)+(whammy bar)-|
C#|-----------------------------------------------|

(2:05) Guitar 1
Eb|--------------------|
Bb|--------------------|
F#|--------------------|
C#|-0~--8~--5~--3~--2~-|x4
G#|-0---8~--5~--3~--2~-|
C#|-0---8~--5~--3~--2~-|

(2:05) Guitar 2
Eb|----------13-12-------------------17-------20----|
Bb|-15-------------15-------18-17-------18----------|
F#|----14-------------14-15----------------17----17-|
C#|-------12----------------------19----------------|
G#|-------------------------------------------------|
C#|-------------------------------------------------|

Eb|-15-------15-------15----13----------------------|
Bb|----13-------13----------------------------------|
F#|-------12-------12----12-------------------------|
C#|-------------------------------------------10/12-|
G#|-------------------------------------------------|
C#|-------------------------------------------------|

(2:32) Guitar 1
Eb|-------------------------------------------------------|
Bb|-----11/13---------------------------------------------|
F#|-----------14p12p10-----14p12p10-----14p12p10-12h14h15-|_________
C#|-------------------------------------------------------|         |
G#|-------------------------------------------------------|         |
C#|-000----------------000----------000-------------------|         |
    ...                ...          ...                             |
                                                                    |
Eb|---------------------------------------------------|             |
Bb|-----11/13-----------------------------------------|             |
F#|-----------14p12p10-----12h14-----12h14p10-12h14p9-|_____________|
C#|---------------------------------------------------|             |
G#|---------------------------------------------------|             |
C#|-000----------------000-------000------------------|             |
    ...                ...       ...                                |x2
                                                                    |
Eb|-------------------------------------------------------|         |
Bb|-----11/13---------------------------------------------|         |
F#|-----------14p12p10-----14p12p10-----14p12p10-12h14h15-|_________|
C#|-------------------------------------------------------|         |
G#|-------------------------------------------------------|         |
C#|-000----------------000----------000-------------------|         |
    ...                ...          ...                             |
                                                                    |
Eb|----------------------------------------------|                  |
Bb|----11/13-------------------------------------|                  |
F#|----------14p12p10----------------------------|__________________|
C#|----------------------------101010-----101010-|
G#|------------------------888--------777--------| 
C#|-000----------------000-----------------------|
    ...                ... ...  . . . ...  . . .

(2:32) Guitar 2
Eb|-----------------------------------------------|
Bb|-----8/10--------------------------------------|
F#|----------10p9p7-----10p9p7-----10p9p7-9h10h12-|_______
C#|-----------------------------------------------|       |
G#|-----------------------------------------------|       |
C#|-000-------------000--------000----------------|       |
    ...             ...        ...                        |
                                                          |
Eb|-----------------------------------------------|       |
Bb|-----8/10--------------------------------------|       |
F#|----------10p9p7-----9h10p7-----9h10p7-9h10----|_______|
C#|--------------------------------------------10-|       |
G#|-----------------------------------------------|       |
C#|-000-------------000--------000----------------|       |
    ...             ...        ...                        |
                                                          |x2
Eb|-----------------------------------------------|       |
Bb|-----8/10--------------------------------------|       |
F#|----------10p9p7-----10p9p7-----10p9p7-9h10h12-|_______|
C#|-----------------------------------------------|       |
G#|-----------------------------------------------|       |
C#|-000-------------000--------000----------------|       |
    ...             ...        ...                        |
                                                          |
Eb|----------------------------------------------|        |
Bb|-----8/10-------------------131313-----131313-|        |
F#|----------10p9p7-----101010--------999--------|________|
C#|----------------------------------------------|
G#|----------------------------------------------|
C#|-000-------------000--------------------------|
    ...             ...

(2:56) Both
Eb|-------------------|
Bb|-------------------|
F#|-------------------|
C#|-------------------|
G#|-0-0-0000--00-0000-|
C#|-0-0-0000--00-0000-|
    . . ....  .. ....

(3:19) Guitar 1
Eb|-----------------------|
Bb|-----------------------|
F#|-----------------------|
C#|-----101010-----101010-|x3
G#|-888--------777--------|
C#|-----------------------|
    ...        ...

(3:19) Guitar 2
Eb|--------------------------|
Bb|--------131313-----131313-|
F#|-101010--------999--------|
C#|--------------------------|x3
G#|--------------------------|
C#|--------------------------|
     . . .        ...

(3:24) Both
Eb|-------------------------------------|
Bb|-------------------------------------|
F#|-------------------------------------|
C#|-0~---------------0~-----------------|x3
G#|-0~--0-0000-0-000-0~--0-0000-0-0-0-0-|
C#|-0~--0-0000-0-000-0~--0-0000-0-0-0-0-|
        . .... . ...     . .... . . . .

Eb|--------------------------------------|
Bb|--------------------------------------|
F#|--------------------------------------|
C#|-0~---------------0~---------------0~-|
G#|-0~--0-0000-0-000-0~--0-0000-0-0-0-0~-|
C#|-0~--0-0000-0-000-0~--0-0000-0-0-0-0~-|
        . .... . ...     . .... . . . 

(3:56) Guitar 1    (every other time)
Eb|------------------------------|-|-|
Bb|------------------------------|-|-|
F#|------------------------------|-V-|
C#|----7/10-7--------10----------|---|x12
G#|-----------8-7h10----8-7-8-10-|-8-|
C#|-0~---------------------------|---|

(4:02) Guitar 2
Eb|------|
Bb|------|
F#|-10-9-|
C#|------|x40
G#|------|
C#|------|

(4:10) Guitar 3
Eb|----12-13p12----12-13p12--17-15-13p12--17-15-13p12-------|
Bb|-15----------15------------------------------------15\13-|
F#|---------------------------------------------------------|
C#|---------------------------------------------------------|x4
G#|---------------------------------------------------------|
C#|---------------------------------------------------------|





Comments


Popular War Of Ages tabs & chords
Battle On Tabs
Brothers In Arms Intro Tabs
Instrumental 3 Tabs
One Day Intro Tabs
Salvation Tabs
Salvation 1 Tabs
Salvation Intro 1 Tabs
Stand Your Ground Tabs
Strength Within Intro 1 Tabs
Through The Flames Tabs


Song lyrics



↑ Back to top | Tablatures and chords are parodies/interpretations of the original songs. You may use it for private study, scholarship, research or language learning purposes only
© 2014 AZChords.com Contact us | Privacy policy | DMCA | Add/correct tabs | Request tabs | Top 50 tabs