» » »

Strength Within Tabs (ver.1)

Artists:  A B C D E F G H I J K L M N O P Q R S T U V W X Y Z # 

Strength Within Tabs (ver.1)

War Of Ages
Rating:
1/5 (1 vote)

Hard to play? Try these video lessons and learn fast.
                (Intro)

Don't pay attention to timing, notes only.
     PM                                         PM PM PM PM PM PM PM PM PM
     E                                          E  E  E  E  E  E  E  E  E  E   E
E||------------------------------------------------------------------------------|
B||------------------------------------------------------------------------------|
G||------------------------------------------------------------------------------|
D||------------------------------------------------------------------------9p--7-|
A||--4------------------------------------------4--4--6--6--6--7--7--7--7--------|
D||------------------------------------------------------------------------------|


  PM PM PM PM PM PM
  E  E  E  E  E  E  E   E  E   E  E   E
-----------------------------------------|
-----------------------------------------|
-----------------------------------------|
--9--9--9--7--7--7--6h--7--4h--6--4s--2--|
-----------------------------------------|
-----------------------------------------|


  PM PM PM PM PM PM PM PM PM PM
  E  E  E  E  E  E  E  E  E  E  E   E  E
------------------------------------------|
------------------------------------------|
------------------------------------------|
--------------------------------9p--7--7--|
--4--4--4--6--6--6--7--7--7--7------------|
------------------------------------------|


  PM PM PM PM PM PM
  E  E  E  E  E  E   E    E   E    E  E    E  E   E
-----------------------------------------------------|
-----------------------------------------------------|
--------------------13h--14--11h--13--9h--11--8h--9--|
--9--9--9--7--7--7-----------------------------------|
-----------------------------------------------------|
-----------------------------------------------------|


  E    E  E  E  E   E    E    E    E   E    E  E   E    E   E    E  E    E  E
--------------------------------------------------------------------------------|
--------------------------------------------------------------------------------|
----------9--8------------------------13~--11--9--13h--14--11h--13--9h--11--8h--|
--9h--11--------9--11~--11h--13h--14--------------------------------------------|
--------------------------------------------------------------------------------|
--------------------------------------------------------------------------------|


  E    E  E  E  E   E    E    E    E   E    E  E   E    E   E    E  E    E  E
--------------------------------------------------------------------------------|
--------------------------------------------------------------------------------|
----------9--8------------------------13~--11--9--13h--14--11h--13--9h--11--8h--|
--9h--11--------9--11~--11h--13h--14--------------------------------------------|
--------------------------------------------------------------------------------|
--------------------------------------------------------------------------------|


  E    E  E  E  E   E    E    E    E   E    E  E   E    E   E    E  E    E  E
--------------------------------------------------------------------------------|
--------------------------------------------------------------------------------|
----------9--8------------------------13~--11--9--13h--14--11h--13--9h--11--8h--|
--9h--11--------9--11~--11h--13h--14--------------------------------------------|
--------------------------------------------------------------------------------|
--------------------------------------------------------------------------------|


  E    E  E  E  E   E    E    E    E   E    E  E   E    E   E    E  E    E  E
--------------------------------------------------------------------------------|
--------------------------------------------------------------------------------|
----------9--8------------------------13~--11--9--13h--14--11h--13--9h--11--8h--|
--9h--11--------9--11~--11h--13h--14--------------------------------------------|
--------------------------------------------------------------------------------|
--------------------------------------------------------------------------------|


Duration Legend
---------------
W - whole
H - half
Q - quarter
E - 8th
S - 16th
T - 32nd
X - 64th
. - note dotted
|-n-|  - n-tuplets


Tablature Legend
----------------
L - tied note
x - dead note
g - grace note
(n) - ghost note
> - accentuded note
NH - natural harmonic
AH - artificial harmonic
TH - tapped harmonic
SH - semi harmonic
PH - pitch harmonic
h - hammer on
p - pull off
b - bend
br - bendRelease
pb - preBend
pbr - preBendRelease
brb - bendReleaseBend
\n/ - tremolo bar dip
\n - tremolo bar dive
-/n - tremolo bar Release up
/n\ - tremolo bar inverted dip
/n - tremolo bar return
-\n - tremolo bar Release down
S - shift slide
s - legato slide
/ -  slide into from below or out of upwards
\ -  slide into from above or out of downwards
~ - vibrato
W - wide vibrato
tr - trill
TP - tremolo picking
T - tapping
S - slap
P - pop
< - fade in
^ - brush up
v - brush down
            
Hard to play? Try these video lessons and learn fast. | Correct




comments powered by Disqus
↑ Back to top | Tablatures and chords are parodies/interpretations of the original songs. You may use it for private study, scholarship, research or language learning purposes only