>
 >
Stand Your Ground

Stand Your Ground Guitar Tabs

War Of Ages - Stand Your Ground chords, tabs, tablatures, lyrics

Guitar lessons | Add/correct | Request | Top 50 tabs Artists:  A B C D E F G H I J K L M N O P Q R S T U V W X Y Z 0-9

Stand Your Ground Guitar Tabs – War Of Ages

CD, Sheet music, Poster

Do you like Stand Your Ground? Share with your friends now
Tabs
Q=200
 4/4
  Gtr I
  TPTPTPTP
  Q Q Q Q   E E E E E E E E E E E E E Q  E
|----------------------------------------------|
|----------------------------------------------|
|----------------------------------------------|
|-7-5-3-2-------3-0-2-0---3-2-0----------------|
|-----------0-0---------0-------0-0-0-3--5-----|
|-----------0-0---------0-------0-0-0----------|
|
| Gtr II
| TPTPTPTP
| Q Q Q Q   W                           +W
|----------------------------------------------|
|----------------------------------------------|
|----------------------------------------------|
|-7-5-3-2--------------------------------------|
|-----------0---------------------------(0)----|
|-----------0---------------------------(0)----|


  W               +W                E E E E E E E E   E  E E E E Q E
|---------------------------------|-------------------------------------|
|---------------------------------|-------------------------------------|
|---------------------------------|-------------------------------------|
|---------------------------------|-----3-0-2-0---3---2--0--------------|
|-0---------------(0)-------------|-0-0---------0----------0-0-0-3-5----|
|-0---------------(0)-------------|-0-0---------0----------0-0-0--------|
|
| E E E E E E E E  E  E E E E Q E   W                +W
|---------------------------------|-------------------------------------|
|---------------------------------|-------------------------------------|
|---------------------------------|-------------------------------------|
|-----3-0-2-0---3--2--0-----------|-------------------------------------|
|-0-0---------0---------0-0-0-3-5-|-0----------------(0)----------------|
|-0-0---------0---------0-0-0-----|-0----------------(0)----------------|


  E E E E E E E E E E E E E E E E     E E E E E E E E  E E E E E Q E   3x
|---------------------------------||-----------------------------------||-|
|---------------------------------||o---------------------------------o||-|
|---------------------------------||-----------------------------------||-|
|-----3-0-2-0-----7-7-5-5-3-3-2-2-||------3-0-2-0---3--2-0-------------||-|
|-0-0---------0-0-----------------||o-0-0---------0--------0-0-0-3-5--o||-|
|-0-0---------0-0-----------------||--0-0---------0--------0-0-0-------||-|
|
| E E E E E E E E E E E E E E E E     E E E E E E E E  E E E E E Q E   3x
|---------------------------------||-----------------------------------||-|
|---------------------------------||o---------------------------------o||-|
|---------------------------------||-----------------------------------||-|
|-----3-0-2-0-----7-7-5-5-3-3-2-2-||------3-0-2-0---3--2-0-------------||-|
|-0-0---------0-0-----------------||o-0-0---------0--------0-0-0-3-5--o||-|
|-0-0---------0-0-----------------||--0-0---------0--------0-0-0-------||-|


  E E E E E E E E   E E E E E E E E     E E E E E E E E  E E E E E Q   E  3x
|-----------------|-----------------||------------------------------------||-|
|-----------------|-----------------||o----------------------------------o||-|
|-----------------|-----------------||------------------------------------||-|
|-----3-0-2-0-----|-7-7-5-5-3-3-2-2-||------3-0-2-0---3--2-0-------2---3--||-|
|-0-0---------0-0-|-----------------||o-0-0---------0--------0-0-0-------o||-|
|-0-0---------0-0-|-----------------||--0-0---------0--------0-0-0--------||-|
|
| E E E E E E E E   E E E E E E E E     E E E E E E E E  E E E E E Q   E  3x
|-----------------|-----------------||------------------------------------||-|
|-----------------|-----------------||o----------------------------------o||-|
|-----------------|-----------------||------------------------------------||-|
|-----3-0-2-0-----|-7-7-5-5-3-3-2-2-||------3-0-2-0---3--2-0--------------||-|
|-0-0---------0-0-|-----------------||o-0-0---------0--------0-0-0-3---5-o||-|
|-0-0---------0-0-|-----------------||--0-0---------0--------0-0-0--------||-|


  E E E E E E E E   E E E E E E E E
|-----------------|--------------------|
|-----------------|--------------------|
|-----------------|--------------------|
|-----3-0-2-0-----|-7-7-5-5-8-8-7-7----|
|-0-0---------0-0-|--------------------|
|-0-0---------0-0-|--------------------|
|
| E E E E E E E E   E E E E E E E E
|-----------------|--------------------|
|-----------------|--------------------|
|-----------------|--------------------|
|-----3-0-2-0-----|-7-7-5-5-8-8-7-7----|
|-0-0---------0-0-|--------------------|
|-0-0---------0-0-|--------------------|


    E E E E E E E E   E E E E E Q  E  3x E E E E E E E E
||------------------|-----------------||-----------------|----|
||o-----------------|----------------o||-----------------|----|
||------------------|-----------------||-----------------|----|
||------7-0-5-3---7-|-5-3-------2--3--||-----7-0-5-3-----|----|
||o-0-0---------0---|-----0-0-0------o||-0-0---------0-0-|----|
||--0-0---------0---|-----0-0-0-------||-0-0---------0-0-|----|
|
|   E E E E E E E E   E E E E E Q  E  3x E E E E E E E E
||------------------|-----------------||-----------------|----|
||o-----------------|----------------o||-----------------|----|
||------------------|-----------------||-----------------|----|
||------3-0-2-0---3-|-2-0-------------||-----3-0-2-0-----|----|
||o-0-0---------0---|-----0-0-0-3--5-o||-0-0---------0-0-|----|
||--0-0---------0---|-----0-0-0-------||-0-0---------0-0-|----|


  E E E E E E E E E E E E E E E E     W          +W    3x
|---------------------------------||-------------------||----|
|---------------------------------||o-----------------o||----|
|---------------------------------||-------------------||----|
|-8-8-7-7-3-3-2-2-2-2-3-3-5-5-7-7-||-------------------||----|
|---------------------------------||o-0----------(0)--o||----|
|---------------------------------||--0----------(0)---||----|
|
| E E E E E E E E E E E E E E E E     W          +W    3x
|---------------------------------||-------------------||----|
|---------------------------------||o-----------------o||----|
|---------------------------------||-------------------||----|
|-8-8-7-7-3-3-2-2-----------------||-------------------||----|
|-----------------3-3-5-5-7-7-8-8-||o-0----------(0)--o||----|
|---------------------------------||--0----------(0)---||----|


   W             +W
|---------------------|----|
|---------------------|----|
|---------------------|----|
|---------------------|----|
|--0-------------(0)--|----|
|--0-------------(0)--|----|
|
|  W             +W
|---------------------|----|
|---------------------|----|
|---------------------|----|
|---------------------|----|
|--0-------------(0)--|----|
|--0-------------(0)--|----|
|
| Gtr III
|  W      +H      H
|-15-----(15)s===17---|----|
|---------------------|----|
|---------------------|----|
|---------------------|----|
|---------------------|----|
|---------------------|----|


    Q=180
    S S S S E. S S S S S E. S S S S S E. H    S                      3x
||-------------------------------------------------------------------||
||o-----------------------------------------------------------------o||
||-------------------------------------------------------------------||
||-------------------------------------------------------------------||
||o-0-0-0-0-0----0-0-0-0-0----0-0-0-0-0-----------------------------o||
||--0-0-0-0-0--x-0-0-0-0-0--x-0-0-0-0-0--x----x----------------------||
|
|   S S S S E. S S S S S E. S                    S S S S E. H    S   3x
||-------------------------------------------------------------------||
||o-----------------------------------------------------------------o||
||-------------------------------------------------------------------||
||-------------------------------------------------------------------||
||o-0-0-0-0-0----0-0-0-0-0-----------------------0-0-0-0-0----------o||
||--0-0-0-0-0--x-0-0-0-0-0--x--------------------0-0-0-0-0--x----x---||


  S S S S E. S S S S S E. S S  S S  S  E. H        S
|-------------------------------------------------------|
|-------------------------------------------------------|
|-------------------------------------------------------|
|-------------------------------------------------------|
|-0-0-0-0-0----0-0-0-0-0----0--0-0--0--0----------------|
|-0-0-0-0-0--x-0-0-0-0-0--x-0--0-0--0--0--x--------x----|
|
|                                      ~~~~~~~~~~
| S S S S E. S S S S S E. S    H    S  S     +Q
|-----------------------------15s==12s15----(15)--------|
|-------------------------------------------------------|
|-------------------------------------------------------|
|-------------------------------------------------------|
|-0-0-0-0-0----0-0-0-0-0--------------------------------|
|-0-0-0-0-0--x-0-0-0-0-0--x-----------------------------|


    Gtrs I, II
     S  S  S  S  E. S  S  S  S  S  E.  S     S  S  S S E. H    S
||------------------------------------------------------------------|
||o-----------------------------------------------------------------|
||------------------------------------------------------------------|
||------------------------------------------------------------------|
||o--0--0--0--0--0-----0--0--0--0--0---------0--0--0-0-0------------|
||---0--0--0--0--0--x--0--0--0--0--0---x-----0--0--0-0-0--x----x----|
|
|   Gtr III
|    E  E  E  E  E  E  E  E  E  E  E   E  E  E  E  E
||------------------------------------------------------------------|
||o-----------------------------------------------------------------|
||-----15S14----17S15----15S14-----------17-------------------------|
||--12-------12-------12-------12-15--14----15-14-15----------------|
||o-----------------------------------------------------------------|
||------------------------------------------------------------------|


   S S  S S  E.    S  S S  S S  E.    S   S S  S S  E.    H             S
|--------------------------------------------------------------------------||
|-------------------------------------------------------------------------o||
|--------------------------------------------------------------------------||
|--------------------------------------------------------------------------||
|--0-0--0-0--0--------0-0--0-0--0---------0-0--0-0--0---------------------o||
|--0-0--0-0--0-----x--0-0--0-0--0-----x---0-0--0-0--0-----x-------------x--||
|
|  E    E    E   E    E    E    E   E     E    E    E   E    E  E  E  E
|--------------------------------------------------------------------------||
|-------------------------------------------------------------------------o||
|------15S==14-------17S==15-------15S===14--------------------------------||
|-12------------12-------------12-------------12---15--14---17-15-14-10----||
|-------------------------------------------------------------------------o||
|--------------------------------------------------------------------------||


|----|
|----|
|----|
|----|
|----|
|----|
|
|----|
|----|
|----|
|----|
|----|
|----|


  Q=180
  Gtr I
  Q  E E S S S s E  S S S S  E  Q S S S S E S S S S E  S  S  S S E S  S S S E E
|-------------------------------------------------------------------------------|
|-------------------------------------------------------------------------------|
|-------------------------------------------------------------------------------|
|--------3-7-3-7----2-5-2-5-------0-3-0-3---2-0-2-0----2--0--2-0------2-0-2-----|
|-0--0-0---------0-----------0--0---------0---------0------------0-0--------0-0-|
|-0--0-0---------0-----------0--0---------0---------0------------0-0--------0-0-|
|
| Gtr II
| W                         +W                           +W
|-------------------------------------------------------------------------------|
|-------------------------------------------------------------------------------|
|-------------------------------------------------------------------------------|
|-------------------------------------------------------------------------------|
|-0-------------------------(0)--------------------------(0)--------------------|
|-0-------------------------(0)--------------------------(0)--------------------|


   S  S S S E S S S S E S S S  S
|------------------------------------|
|------------------------------------|
|------------------------------------|
|--3--0-3-0---5-2-5-2---3-7-3--7-----|
|-----------0---------0--------------|
|-----------0---------0--------------|
|
| +S                          +H
|------------------------------------|
|------------------------------------|
|------------------------------------|
|------------------------------------|
|-(0)-------------------------(0)----|
|-(0)-------------------------(0)----|


  Q  E E S S S s E S S   S  S E Q  S S S S E S S   S  S S S S S S E S S S S E  E
|---------------------------------------------------------------------------------|
|---------------------------------------------------------------------------------|
|---------------------------------------------------------------------------------|
|--------3-7-3-7---2-5---2--5------0-3-0-3---2-0---2--0---2-0-2-0-----2-0-2-------|
|-0--0-0---------0------------0-0----------0------------0---------0-0-------0--0--|
|-0--0-0---------0------------0-0----------0------------0---------0-0-------0--0--|
|
| W                     +W                        +W
|---------------------------------------------------------------------------------|
|---------------------------------------------------------------------------------|
|---------------------------------------------------------------------------------|
|---------------------------------------------------------------------------------|
|-0---------------------(0)-----------------------(0)-----------------------------|
|-0---------------------(0)-----------------------(0)-----------------------------|


|-|
|-|
|-|
|-|
|-|
|-|



***************************************************************************************
***************************************************************************************





Comments


Popular War Of Ages tabs & chords
Aftermath Bass Tabs
One Day Bass Tabs
Battle On Tabs
Collapse Tabs
Instrumental Tabs
Instrumental 2 Tabs
Instrumental 3 Tabs
Salvation Intro Tabs
Through The Flames Tabs
Yet Another Fallen Eve Tabs


Song lyrics



↑ Back to top | Tablatures and chords are parodies/interpretations of the original songs. You may use it for private study, scholarship, research or language learning purposes only
© 2014 AZChords.com Contact us | Privacy policy | DMCA | Add/correct tabs | Request tabs | Top 50 tabs