» » »

Scars Of Tommorow Tabs (ver.1)

Artists:  A B C D E F G H I J K L M N O P Q R S T U V W X Y Z # 

Scars Of Tommorow Tabs (ver.1)

War Of Ages
Rating:
0/5 (0 votes)
Tabs too difficult? Try these video lessons and learn fast.
                -----------------------------------------------------------------------------
	         SCARS OF TOMORROW (solo) - War of Ages
-----------------------------------------------------------------------------
________________________________________________________________________
There's nothing much too complicated about this tab except for some
tricky fingering closer to the start.

Remember though, that this is the original version from
their self-titled album which was released in 2005; so please dont make
corrections if they are from the Fire in the Tomb album [2007] (which is
pretty much the same thing but in drop C)

Hope this helps. (I also have a guitar pro tab for those with gp5)
_________________________________________________________________________

Ending Solo:
e|--------------------------------------|-----------------------------------|
B|15-6-10-15-6-10-15-6-10-15-6-10-------|18-6-10-18-6-10-18-6-10-18-6-10----|
G|--------------------------------------|-----------------------------------|
D|--------------------------------------|-----------------------------------|
A|--------------------------------------|-----------------------------------|
D|--------------------------------------|-----------------------------------|

e|--------------------------------------|-----------------------------------|
B|17-6-10-17-6-10-17-6-10-17-6-10-------|15-6-10-15-6-10-15-6-10-15-6-10----|
G|--------------------------------------|-----------------------------------|
D|--------------------------------------|-----------------------------------|
A|--------------------------------------|-----------------------------------|
D|--------------------------------------|-----------------------------------|

e|--------------------------------------|-----------------------------------|
B|13-5-8-13-5-8-13-5-8-13-5-8-----------|11-5-8-11-5-8-11-5-8-11-5-8--------|
G|--------------------------------------|-----------------------------------|
D|--------------------------------------|-----------------------------------|
A|--------------------------------------|-----------------------------------|
D|--------------------------------------|-----------------------------------|

e|--------------------------------------|-----------------------------------|
B|10-5-8-10-5-8-10-5-8-10-5-8-----------|11-5-8-11-5-8-11-5-8-11-5-8--------|
G|--------------------------------------|-----------------------------------|
D|--------------------------------------|-----------------------------------|
A|--------------------------------------|-----------------------------------|
D|--------------------------------------|-----------------------------------|
									repeat once

then

e|--------------------------------------|-----------------------------------|
B|15-6-10-15-6-10-15-6-10-15-6-10-------|18-6-10-17-6-10-18-6-10-20-6-10----|
G|--------------------------------------|-----------------------------------|
D|--------------------------------------|-----------------------------------|
A|--------------------------------------|-----------------------------------|
D|--------------------------------------|-----------------------------------|

e|--------------------------------------|-----------------------------------|
B|18-6-10-17-6-10-18-6-10-17-6-10-------|15-6-10-15-6-10-15-6-10-15-6-10----|
G|--------------------------------------|-----------------------------------|
D|--------------------------------------|-----------------------------------|
A|--------------------------------------|-----------------------------------|
D|--------------------------------------|-----------------------------------|

e|--------------------------------------|-----------------------------------|
B|13-5-8-13-5-8-13-5-8-13-5-8-----------|11-5-8-11-5-8-11-5-8-11-5-8--------|
G|--------------------------------------|-----------------------------------|
D|--------------------------------------|-----------------------------------|
A|--------------------------------------|-----------------------------------|
D|--------------------------------------|-----------------------------------|

e|--------------------------------------|-----------------------------------|
B|10-5-8-10-5-8-10-5-8-10-5-8-----------|11-5-8-11-5-8-11-5-8-11-5-8--------|
G|--------------------------------------|-----------------------------------|
D|--------------------------------------|-----------------------------------|
A|--------------------------------------|-----------------------------------|
D|--------------------------------------|-----------------------------------|

e|--------------------------------------|-----------------------------------|
B|10-3-6-10-3-6-10-3-6-10-3-6-----------|-8-3-6-8-3-6-8-3-6-8-3-6-----------|
G|--------------------------------------|-----------------------------------|
D|--------------------------------------|-----------------------------------|
A|--------------------------------------|-----------------------------------|
D|--------------------------------------|-----------------------------------|

e|--------------------------------------|-----------------------------------|
B|11-3-6-11-3-6-11-3-6-11-3-6-----------|10-3-6-10-3-6-10-3-6-10-3-6--------|
G|--------------------------------------|-----------------------------------|
D|--------------------------------------|-----------------------------------|
A|--------------------------------------|-----------------------------------|
D|--------------------------------------|-----------------------------------|

e|--------------------------------------|-----------------------------------|
B|11-5-8-11-5-8-11-5-8-11-5-8-----------|10-5-8-10-5-8-10-5-8-10-5-8--------|
G|--------------------------------------|-----------------------------------|
D|--------------------------------------|-----------------------------------|
A|--------------------------------------|-----------------------------------|
D|--------------------------------------|-----------------------------------|

e|--------------------------------------|-----------------------------------|
B|11-5-8-11-5-8-11-5-8-11-5-8-----------|10-5-8-10-5-8-10-5-8-10-5-8--------|
G|--------------------------------------|-----------------------------------|
D|--------------------------------------|-----------------------------------|
A|--------------------------------------|-----------------------------------|
D|--------------------------------------|-----------------------------------|
___________________________________________________________________

and an optional one of these at the end:

e|--------------------------------------| \
B|--------------------------------------|  |
G|--------------------------------------|  |
D|-0------------------------------------|  |let it fade
A|-0------------------------------------|  |
D|-0------------------------------------| /
            
Tabs too difficult? Try these video lessons and learn fast.


comments powered by Disqus
↑ Back to top | Tablatures and chords are parodies/interpretations of the original songs. You may use it for private study, scholarship, research or language learning purposes only