» » »

War Of Ages, Salvation Tabs (ver.4)

Artists:  A B C D E F G H I J K L M N O P Q R S T U V W X Y Z # 

Salvation Tabs (ver.4)

War Of Ages Tabs
Rating:
3/5 (1 vote)
Salvation lessons Tabs too difficult? Try these video lessons and learn fast
                (Intro)
\

e|-------------------------------------------------------------------------|
B|-------------------------------------------------------------------------|
G|----------------------7779-----------------------------------------------|
D|----------10109------------10---------10109-5/7/9/10/9/7-----------------|
A|--000------------000--------------000------------------------------------|
E|-------------------------------------------------------------------------|
this part im not sure about its close enough
e|--------------15h19---------------------------------15h19---17/18/10-----|
B|-19bf19bf19bf------1519---------------------161719-----------------------|
G|-------------------------------------------------------------------------|
D|-------------------------------------151619------------------------------|
A|-------------------------------141519------------------------------------|
E|-------------------------141519------------------------------------------|

e|--13-12-10---------------------------------------------------------------|
B|------------13-12-11-----------------------------------------------------|
G|-----------------------14-15-13------------------------------------------|
D|------------------------------------17t19--------------------------------|
A|-------------------------------------------------------------------------|
E|------------------------------------------------0000---------------------|
                                                  ....
sweeping part
e|-------------13h16-----------------14h18------18h20p16-------------------|
B|-----------16-----16-------------16-----15--16---------------------------|
G|---------14---------15---------15---------16-----------------------------|
D|-------15-------------15-----17------------------------5-7-9-------------|
A|--12h17-----------------12h19--------------------------------------------|
E|-------------------------------------------------------------------------|


e|---------------------------------------------------------------------------|
B|---------------------------------------------------------------------------|
G|---------------------------------------------------------------------------|
D|---------------------------------------------------------------------------|
A|---------------------------------------------------------------------------|
E|-000-87-000-5-000-57-87-85-000---------------------------------------------|
pm ...    ...   ...          ... 
            

comments powered by Disqus
↑ Back to top | War Of Ages Tabs for Salvation. Lyrics for acoustic guitar and electric guitar. Tablatures and chords are parodies/interpretations of the original songs. You may use it for private study, scholarship, research or language learning purposes only