» » »

War Of Ages, Meb Tabs (ver.1)

Artists:  A B C D E F G H I J K L M N O P Q R S T U V W X Y Z # 

Meb Tabs (ver.1)

War Of Ages Tabs
 Rating:
4/5 (4 votes)
Meb lessons Tabs too difficult? Try these video lessons and learn fast
1
                M.E.B.
War Of Ages
Return to Life
     This is my very first tab, and so I know for a fact that it's not
exact, but it is incredibly close. I have looked ALL OVER the internet to
decided to figure it out and make this tab.  Hope you enjoy, and if you have
something to change/add, then please tell me. 

  CAPO 3  Intro:  This is played twice, and then a new pattern is started
which I haven't gotten yet:/ I put up the chords that go along with it though
but not the actual pattern.
|-----------------------------------------------------------------|
|---------------------------0---------------3---------------------|
|------2---------2------2-----2---------0-----0-------2----2------|    
|----0---0-----0------0---0-----0-----0---0-----0---0---0----0----|
|--2-------2h4------5---------------2-------------0-------0----0--|
|---------------------------------3-------------------------------|

      0:15  I have yet to figure out the specific pattern, but for now, use 
these chords and finger pick to your desire. Make sure to hit the high notes.
|---------0---0---|
|-5---3---3---3---|
|-2---0---2---2---|
|-0---0---0---0---|
|-0---2---2---0---|
|-2---3-----------|


         0:28
|-------------0---0-0-0-0-0---0-0-0-0-0---0-0-0-0-------------0---0-0-0-0---|
|-3---3-3-3-3-3---3-3-3-3-3---3-3-3-3-3---3-3-3-3-3---3-3-3-3-3---3-3-3-3-3-|
|-0---0-0-0-0-2---2-2-2-2-2---2-2-2-2-2---2-2-2-2-0---0-0-0-0-2---2-2-2-2-0-|
|-0---0-0-0-0-0---0-0-0-0-0---0-0-0-0-0---0-0-0-0-0---0-0-0-0-0---0-0-0-0-4-|
|-2---2-2-2-2-2---2-2-2-2-0---0-0-0-0-0---0-0-0-0-2---2-2-2-2-2---2-2-2-2-5-|
|-3---3-3-3-3-------------------------------------3---3-3-3-3---------------|

|---------------------------------------------------------------------------|
|--3-3-3-3-3---3-3-3-3------------------------------------------------------|
|--0-0-0-0-0---0-0-0-0------------------------------------------------------|
|--4-4-4-4-4---4-4-4-4------------------------------------------------------|
|--5-5-5-5-5---5-5-5-5------------------------------------------------------|
|---------------------------------------------------------------------------|

        0:45
|-------------------------0---0-0-0-0-0---0-0-0-0-0---0-0-0-0-0---0-0-0-0-0-|
|-3---3-3-3-3-3---3-3-3-3-3---3-3-3-3-3---3-3-3-3-3---3-3-3-3-3---3-3-3-3-3-|
|-0---0-0-0-0-0---0-0-0-0-2---2-2-2-2-2---2-2-2-2-2---2-2-2-2-2---2-2-2-2-2-|
|-0---0-0-0-0-0---0-0-0-0-0---0-0-0-0-0---0-0-0-0-0---0-0-0-0-0---0-0-0-0-0-|
|-2---2-2-2-2-2---2-2-2-2-0---0-0-0-0-0---0-0-0-0-2---2-2-2-2-2---2-2-2-2-0-|
|-3---3-3-3-3-3---3-3-3-3---------------------------------------------------|

|--0-0-0-0-0---0-0-0-0---|
|--3-3-3-3-3---3-3-3-3---|
|--2-2-2-2-2---2-2-2-2---|
|--0-0-0-0-0---0-0-0-0---|
|--0-0-0-0-0---0-0-0-0---|
|------------------------|
                                   
 At the same time the chords above are played, this little riff comes in.
|---------------------------------------------------------------------------|
|-----------------------------------10-8------------------------------------|
|--7-9-11-9---7-9-11-9---7-9-11-9--------11-9-------------------------------|
|---------------------------------------------------------------------------|
|---------------------------------------------------------------------------|
|---------------------------------------------------------------------------|
          And right after... Play this 7ish times, then back to the last
chord in the progression above and hold....back to intro.  The last chord in
the song is the last chord in the progression, but exclude the high e.
|---------------------------------------------------------------------------|
|-101015p1014p10101015p1014p101010------------------------------------------|
|---------------------------------------------------------------------------|
|---------------------------------------------------------------------------|
|---------------------------------------------------------------------------|
|---------------------------------------------------------------------------|
            
Submit corrections

comments powered by Disqus
↑ Back to top | War Of Ages Tabs for Meb. Lyrics for acoustic guitar and electric guitar. 1 Tablatures and chords are parodies/interpretations of the original songs. You may use it for private study, scholarship, research or language learning purposes only