>
 >
Collapse

Collapse Guitar Tabs

War Of Ages - Collapse chords, tabs, tablatures, lyrics

Guitar lessons | Add/correct | Request | Top 50 tabs Artists:  A B C D E F G H I J K L M N O P Q R S T U V W X Y Z 0-9

Collapse Guitar Tabs – War Of Ages

CD, Sheet music, Poster

Do you like Collapse? Share with your friends now
Tabs
COLLAPSE
As recorded by War of Ages
(From the 2011 Album ETERNAL)

G#58 8 8 x x x  Bb510 10 10 x x x       C50 0 0 x x x   Eb53 3 x x x x
F55 5 x x x x   G57 7 x x x x           

Gtr I (C G C F A D) - 'Untitled'
Gtr II (C G C F A D) - 'Untitled'
Gtr III (C G C F A D) - 'Untitled'
   Intro Chorus
    Q=158
    G#5
   4/4
    Gtr I
    E E E E  E E E E    E   E E  E  E E E E
||-------------------|----------------------|
||o------------------|----------------------|
||----7---7------9---|------7----7------9---|
||----------10-------|-------------10-------|
||o------------------|----------------------|
||--8---8------8---8-|--8-----8-------8---8-|
|
|   Gtr II
|   E E E E  E E E E    E   E E  E  E E E E
||-------------------|----------------------|
||o------------------|----------------------|
||----7---7------9---|-----10---10------7---|
||----------10-------|-------------12-------|
||o------------------|----------------------|
||--8---8------8---8-|--8-----8-------8---8-|
|
|   Gtr III
|   W                  +W
||-------------------|----------------------|
||o------------------|----------------------|
||-------------------|----------------------|
||--8----------------|-(8)------------------|
||o-8----------------|-(8)------------------|
||--8----------------|-(8)------------------|


  Bb5
   E E  E E  E  E E  E     E  E  E E  E  E E  E
|----------------------|-------------------------|
|----------------------|-------------------------|
|----7----7-------9----|------7----7-------7-----|
|-----------10---------|-------------10----------|
|----------------------|-------------------------|
|-10---10------10---10-|--10----10------10---10--|
|
|  E E  E E  E  E E  E     E  E  E E  E  E E  E
|----------------------|-------------------------|
|----------------------|-------------------------|
|----7----7-------9----|------7----7-------7-----|
|-----------10---------|-------------10----------|
|----------------------|-------------------------|
|-10---10------10---10-|--10----10------10---10--|
|
|  W                      +W
|----------------------|-------------------------|
|----------------------|-------------------------|
|----------------------|-------------------------|
|-10-------------------|-(10)--------------------|
|-10-------------------|-(10)--------------------|
|-10-------------------|-(10)--------------------|


  G#5
  E E E E  E E E E    E   E E  E  E E E E
|------------------|----------------------|
|------------------|----------------------|
|---7---7------9---|------7----7------9---|
|---------10-------|-------------10-------|
|------------------|----------------------|
|-8---8------8---8-|--8-----8-------8---8-|
|
| E E E E  E E E E    E   E E  E  E E E E
|------------------|----------------------|
|------------------|----------------------|
|---7---7------9---|-----10---10------7---|
|---------10-------|-------------12-------|
|------------------|----------------------|
|-8---8------8---8-|--8-----8-------8---8-|
|
| W                  +W
|------------------|----------------------|
|------------------|----------------------|
|------------------|----------------------|
|-8----------------|-(8)------------------|
|-8----------------|-(8)------------------|
|-8----------------|-(8)------------------|


  C5
   E   E    E E  E    E   E  E    E   E    E   E    E    E   E    E
|------------------------------|-----------------------------------------||
|------------------------------|----------------------------------------o||
|------7------7-----------9----|------7--------7-------------7-----------||
|---------------10-------------|-------------------10--------------------||
|------------------------------|----------------------------------------o||
|--0--------0---------0------0-|--0--------0-------------0--------0------||
|
|  E   E    E E  E    E   E  E    E   E    E   E    E    E   E    E
|------------------------------|-----------------------------------------||
|------------------------------|----------------------------------------o||
|------7------7-----------9----|------7--------7-------------7-----------||
|---------------10-------------|-------------------10--------------------||
|------------------------------|----------------------------------------o||
|-10-------10--------10-----10-|-10-------10------------10-------10------||
|
|  PM---------------------------------------------------------------|
|  S S S S  Q    S S  S S Q       S S S S  S S S S  S S  S S S S  S S
|------------------------------|-----------------------------------------||
|------------------------------|----------------------------------------o||
|------------------------------|-----------------------------------------||
|------------------------------|-----------------------------------------||
|--0-0-0-0--0----0-0--0-0-0----|--0-0-0-0--0-0-0-0--0-0--0-0-0-0--0-0---o||
|--0-0-0-0--0----0-0--0-0-0----|--0-0-0-0--0-0-0-0--0-0--0-0-0-0--0-0----||


   Pre-Verse
    C5
   4/4
    Gtrs I, II
     S  S S S S S S S S S S S  S  S S S   S S  S  S S S S S  S  S S S Q
||--------------------------------------|---------------------------------|
||o-------------------------------------|---------------------------------|
||--------------------------------------|---------------------------------|
||--------------------------------------|---------------------------7h8\--|
||o---------------8p7-------------------|-----12p10-----------------------|
||--10h12-0-0-0-0-----0-0-0-0-10h12-0-0-|-0-0-------0-0-0-0-10h12-0-------|
|
|    S  S S S S S S S S S E    S  S S S   E    S  S S S S S  S  S S S Q
||--------------------------------------|---------------------------------|
||o-------------------------------------|---------------------------------|
||--------------------------------------|---------------------------------|
||--------------------------------------|---------------------------------|
||o--0--0-0-0-0-0-0-0-0-0------0--0-0-0-|------0--0-0-0-0-0--0--0-0-0-----|
||---0--0-0-0-0-0-0-0-0-0------0--0-0-0-|------0--0-0-0-0-0--0--0-0-0-----|


                                                                  ~
   S  S S S S S  S  S S S S S  S S S S    E   S S S S S S S S S S Q
|--------------------------------------|--------------------------------||
|--------------------------------------|-------------------------------o||
|--------------------------------------|--------------------------------||
|--------------------------------------|--------------------------------||
|---------------12p10------------------|-------------------------------o||
|-10h12-0-0-0-0-------0-0-0-0-10p0-0-0-|-12p==0-0-0-0-0-0-3p0-5p0-7-----||
|
|  S  S S S S S  S  S S S E    S S S S    S S E   E   E   H
|--------------------------------------|--------------------------------||
|--------------------------------------|-------------------------------o||
|--------------------------------------|--------------------------------||
|--------------------------------------|--------------------------------||
|--0--0-0-0-0-0--0--0-0-0------0-0-0-0-|--0-0-0---0---0----------------o||
|--0--0-0-0-0-0--0--0-0-0------0-0-0-0-|--0-0-0---0---0-----------------||


   Verse
    $
    Gtrs I, III
    PM--------|
    S S E S S E H      Q  S S S S S S E E E
||-------------------|----------------------|
||o------------------|----------------------|
||-------------------|----------------------|
||-------------------|----------------------|
||o-0-0-0-0-0-0------|----0-0-0-0-0-0-0-0---|
||--0-0-0-0-0-0------|----0-0-0-0-0-0-0-0---|


  PM--------|
  S S E S S E H      Q  S S S S S S E Q
|------------------|----------------------||
|------------------|---------------------o||
|------------------|----------------------||
|------------------|----------------------||
|-3-3-3-3-3-3------|----3-3-3-3-7-7-7-7--o||
|-3-3-3-3-3-3------|----3-3-3-3-7-7-7-7---||


 Pre-Chorus
  C5
  Gtr I
                                  ~~~
  Q.         E E  E E  E    +Q    H.
|------------------------|---------------------------|
|------------------------|---------------------------|
|------------------------|---------------------------|
|-0----------0s7---------|---------------------------|
|----------------10-8-10-|-(10)s=12------------------|
|------------------------|---------------------------|
|
| Gtr III
| PM---------|
| S  S E S S E H             Q    S  S S S S S E E E
|------------------------|---------------------------|
|------------------------|---------------------------|
|------------------------|---------------------------|
|------------------------|---------------------------|
|-0--0-0-0-0-0-----------|--------0--0-0-0-0-0-0-0---|
|-0--0-0-0-0-0-----------|--------0--0-0-0-0-0-0-0---|


  Eb5                                     G5
  H           E  E E  E    +E  E S S  E   Q     Q
|-----------------------|---------------------------|
|-----------------------|---------------------------|
|-----------------------|---------------------------|
|-------------7---------|---------------------------|
|-8-------------10-8-10-|-(10)-7-8-7-10---8-----7---|
|-----------------------|---------------------------|
|
| PM--------|
| S S E S S E H             Q    S S  S S S S E Q
|-----------------------|---------------------------|
|-----------------------|---------------------------|
|-----------------------|---------------------------|
|-----------------------|---------------------------|
|-3-3-3-3-3-3-----------|--------3-3--3-3-7-7-7-7---|
|-3-3-3-3-3-3-----------|--------3-3--3-3-7-7-7-7---|


  C5
                                  ~~~
  Q.         E E  E E  E    +Q    H.
|------------------------|---------------------------|
|------------------------|---------------------------|
|------------------------|---------------------------|
|-0----------0s7---------|---------------------------|
|----------------10-8-10-|-(10)s=12------------------|
|------------------------|---------------------------|
|
| PM---------|
| S  S E S S E H             Q    S  S S S S S E E E
|------------------------|---------------------------|
|------------------------|---------------------------|
|------------------------|---------------------------|
|------------------------|---------------------------|
|-0--0-0-0-0-0-----------|--------0--0-0-0-0-0-0-0---|
|-0--0-0-0-0-0-----------|--------0--0-0-0-0-0-0-0---|


  Eb5                                 G5
  H            Q.   E   +Q    Q        Q      Q
|---------------------|---------------------------||
|---------------------|---------------------------||
|---------------------|---------------------------||
|-------------/7----8-|-(8)--10-------12-----15---||
|-8-------------------|---------------------------||
|---------------------|---------------------------||
|
| PM--------|
| S S E S S E  H         Q    S S S S  S S E  Q
|---------------------|---------------------------||
|---------------------|---------------------------||
|---------------------|---------------------------||
|---------------------|---------------------------||
|-3-3-3-3-3-3---------|-------3-3-3-3--7-7-7--7---||
|-3-3-3-3-3-3---------|-------3-3-3-3--7-7-7--7---||


   Chorus
    G#5
    Gtr I
    E E E E  E E E E    E   E E  E  E E E E
||-------------------|----------------------|
||o------------------|----------------------|
||----7---7------9---|------7----7------9---|
||----------10-------|-------------10-------|
||o------------------|----------------------|
||--8---8------8---8-|--8-----8-------8---8-|
|
|   Gtr II
|   E E E E  E E E E    E   E E  E  E E E E
||-------------------|----------------------|
||o------------------|----------------------|
||----7---7------9---|-----10---10------7---|
||----------10-------|-------------12-------|
||o------------------|----------------------|
||--8---8------8---8-|--8-----8-------8---8-|
|
|   Gtr III
|   W                  +W
||-------------------|----------------------|
||o------------------|----------------------|
||-------------------|----------------------|
||--8----------------|-(8)------------------|
||o-8----------------|-(8)------------------|
||--8----------------|-(8)------------------|


  Bb5
   E E  E E  E  E E  E     E  E  E E  E  E E  E
|----------------------|------------------------|
|----------------------|------------------------|
|----7----7-------9----|------7----7-------7----|
|-----------10---------|-------------10---------|
|----------------------|------------------------|
|-10---10------10---10-|--10----10------10---10-|
|
|  E E  E E  E  E E  E     E  E  E E  E  E E  E
|----------------------|------------------------|
|----------------------|------------------------|
|----7----7-------9----|------7----7-------7----|
|-----------10---------|-------------10---------|
|----------------------|------------------------|
|-10---10------10---10-|--10----10------10---10-|
|
|  W                      +W
|----------------------|------------------------|
|----------------------|------------------------|
|----------------------|------------------------|
|-10-------------------|-(10)-------------------|
|-10-------------------|-(10)-------------------|
|-10-------------------|-(10)-------------------|


  G#5
  E E E E  E E E E    E   E E  E  E E E E
|------------------|----------------------|
|------------------|----------------------|
|---7---7------9---|------7----7------9---|
|---------10-------|-------------10-------|
|------------------|----------------------|
|-8---8------8---8-|--8-----8-------8---8-|
|
| E E E E  E E E E    E   E E  E  E E E E
|------------------|----------------------|
|------------------|----------------------|
|---7---7------9---|-----10---10------7---|
|---------10-------|-------------12-------|
|------------------|----------------------|
|-8---8------8---8-|--8-----8-------8---8-|
|
| W                  +W
|------------------|----------------------|
|------------------|----------------------|
|------------------|----------------------|
|-8----------------|-(8)------------------|
|-8----------------|-(8)------------------|
|-8----------------|-(8)------------------|


                                                     To Coda
  C5
  E   E   E E  E   E   E E   E   E   E   E    E   E   E   E
|--------------------------|-------------------------------------||
|--------------------------|------------------------------------o||
|-----7-----7----------9---|-----7-------7------------7----------||
|-------------10-----------|-----------------10------------------||
|--------------------------|------------------------------------o||
|-0-------0--------0-----0-|-0-------0------------0-------0------||
|
| E   E   E E  E   E   E E   E   E   E   E    E   E   E   E
|--------------------------|-------------------------------------||
|--------------------------|------------------------------------o||
|-----7-----7----------9---|-----7-------7------------7----------||
|-------------10-----------|-----------------10------------------||
|--------------------------|------------------------------------o||
|-0-------0--------0-----0-|-0-------0------------0-------0------||
|
| PM--------------------------------------------------------|
| S S S S Q    S S S S Q     S S S S S S S S  S S S S S S S S
|--------------------------|-------------------------------------||
|--------------------------|------------------------------------o||
|--------------------------|-------------------------------------||
|--------------------------|-------------------------------------||
|-0-0-0-0-0----0-0-0-0-0---|-0-0-0-0-0-0-0-0--0-0-0-0-0-0-0-0---o||
|-0-0-0-0-0----0-0-0-0-0---|-0-0-0-0-0-0-0-0--0-0-0-0-0-0-0-0----||


 Pre-Verse
  C5
   S  S S S  S S S S S S S S  S  S S S   S S  S  S S S S S  S  S S S Q
|--------------------------------------|----------------------------------|
|--------------------------------------|----------------------------------|
|--------------------------------------|----------------------------------|
|--------------------------------------|---------------------------7-8\---|
|----------------8-7-------------------|-----12-10------------------------|
|-10-12-0-0--0-0-----0-0-0-0-10-12-0-0-|-0-0-------0-0-0-0-10-12-0--------|
|
|  S  S S H.                         S   H                  S  S S Q    S
|--------------------------------------|----------------------------------|
|--------------------------------------|----------------------------------|
|--------------------------------------|----------------------------------|
|--------------------------------------|----------------------------------|
|--0--0-0------------------------------|--------------------0--0-0--------|
|--0--0-0------------------------------|--------------------0--0-0--------|


                                                       D.S. al Coda
                                                                 ~
   S  S S S  S S  S  S S S S S  S S S S    E S S S S S S S S S S Q
|---------------------------------------|----------------------------||
|---------------------------------------|----------------------------||
|---------------------------------------|----------------------------||
|---------------------------------------|----------------------------||
|----------------12-10------------------|----------------------------||
|-10-12-0-0--0-0-------0-0-0-0-10-0-0-0-|-12-0-0-0-0-0-0-3-0-5-0-7---||
|
|  S  S S H.                          S    Q     S S S S H
|---------------------------------------|----------------------------||
|---------------------------------------|----------------------------||
|---------------------------------------|----------------------------||
|---------------------------------------|----------------------------||
|--0--0-0-------------------------------|----------0-0-0-------------||
|--0--0-0-------------------------------|----------0-0-0-------------||


 Guitar Solo
  &
                                             C5
                                                       |----3----|
  S S S S S S S  S  S  S  S  S  S  S  S  S    H        Q    Q    Q      E  E  E  E  Q..       S
|------------------------------------------|-------------------------|--------------------------|
|-5p3h5-7h8p7h8-10h12p10h12p10h12-13p12h13-|-15-------15---17---18---|-17----15----13---------3h|
|------------------------------------------|-------------------------|----17----14--------------|
|------------------------------------------|-------------------------|--------------------------|
|------------------------------------------|-------------------------|--------------------------|
|------------------------------------------|-------------------------|--------------------------|
|
| W                                           E E E E  E E    E    E    E  E  E  E  E   E E E
|------------------------------------------|-------------------------|--------------------------|
|------------------------------------------|-------------------------|--------------------------|
|------------------------------------------|-------------------------|--------------------------|
|------------------------------------------|-------------------------|--------------------------|
|------------------------------------------|--0-0-0-0--0-0----0----0-|--0--0--0--0--0---0-0-0---|
|------------------------------------------|--0-0-0-0--0-0----0----0-|--0--0--0--0--0---0-0-0---|


                                        G#5       Eb5       F5        G5
  T   T   T    T   T    T    T    T      T    T    T    T    T    T    T    T
  S S S S S S  S S S S  S S  S S  S S    S S  S S  S S  S S  S S  S S  S S  S  S
|-------------------------------------|---------------------------------------------|
|-8-3h6-3h8-3h11-3h8-3h11-3h13-3h11-3h|=13-3h15-3h13-3h15-3h17-3h15-3h17-3h18h20----|
|-------------------------------------|---------------------------------------------|
|-------------------------------------|---------------------------------------------|
|-------------------------------------|---------------------------------------------|
|-------------------------------------|---------------------------------------------|
|
| E   E   E    E   E    E    E    E      S S  S S  S S  S S  S S  S S  S S  S  S
|-------------------------------------|---------------------------------------------|
|-------------------------------------|---------------------------------------------|
|-------------------------------------|---------------------------------------------|
|-------------------------------------|---------------------------------------------|
|-0---0---0----0---0----0----0----0---|--8-8--8-8--3-3--3-3--5-5--5-5--7-7--7--7----|
|-0---0---0----0---0----0----0----0---|--8-8--8-8--3-3--3-3--5-5--5-5--7-7--7--7----|


  C5
   Q      Q.         E   E  E    Q       +E      +H           S  S
|-21b22--21b22======21r-20-18-|-21b24---(21)b25-(21)b22---------20-|
|-----------------------------|------------------------------------|
|-----------------------------|------------------------------------|
|-----------------------------|------------------------------------|
|-----------------------------|------------------------------------|
|-----------------------------|------------------------------------|
|
|  Q      E     E E  E   E  E    E    E   E       E     E E E E
|-----------------------------|------------------------------------|
|-----------------------------|------------------------------------|
|-----------------------------|------------------------------------|
|-----------------------------|------------------------------------|
|--0------0-----0-0--0---0--0-|--0----0---0-------0-----0-0--------|
|--0------0-----0-0--0---0--0-|--0----0---0-------0-----0-0-5-7----|


  G#5           C5                                    G#5   C5    Eb5   C5    F5C5    G5 C5
    S   S  S  S  S  S  S  S  S  S  S  S  S  S  S  S    S  S  S  S  S  S  S E.    S  S  Q
|-/22p=20p18p17-22p18p17p15-20p17p15p13-20p15p13p12-|-15p13-12-10-13-12-10-8----12-10------|
|---------------------------------------------------|---------------------------------10---|
|---------------------------------------------------|--------------------------------------|
|---------------------------------------------------|--------------------------------------|
|---------------------------------------------------|--------------------------------------|
|---------------------------------------------------|--------------------------------------|
|
|   Q            E     E     E     E     E     E       E     E     E     E    E  E     E E
|---------------------------------------------------|--------------------------------------|
|---------------------------------------------------|--------------------------------------|
|---------------------------------------------------|--------------------------------------|
|---------------------------------------------------|--------------------------------------|
|---8\-----------0-----0-----0-----0-----0-----0----|--8-----0-----3-----0----5--0-----7-0-|
|---8\-----------0-----0-----0-----0-----0-----0----|--8-----0-----3-----0----5--0-----7-0-|


  C5                                                         F5  C5    G5    C5
   E S S S S S S  S  S S S S S  S  S    S  S S S  S  S  S  S S S  S  S  S  S S S
|------------------------------------|-------------------------------------------|
|------------------------------------|-------------------------------------------|
|-/7-----7-7-----10-10-9-9-----12-12-|-10-10-----14-14-12-12-----12-12-10-10-9-9-|
|----0-0-----0-0-----------0-0-------|-------0-0-------------0-0-----------------|
|------------------------------------|-------------------------------------------|
|------------------------------------|-------------------------------------------|
|
|  E E   E   E    E    E   E    E       E    E    E     E    E    E     E    E
|------------------------------------|-------------------------------------------|
|------------------------------------|-------------------------------------------|
|------------------------------------|-------------------------------------------|
|------------------------------------|-------------------------------------------|
|--0-0---0---0----0----0---0----0----|--0----0----0-----0----5----0-----7----0---|
|--0-0---0---0----0----0---0----0----|--0----0----0-----0----5----0-----7----0---|


  G#5     C5                          G#5 C5  Eb5 C5  F5    C5  G5  C5
   E  S S S S S S  S  S S S S S S S   S S S S S S S S  S  S S S  Q
|-----------------------------------|---------------------------------|
|-----------------------------------|---------------------------------|
|-/7------7-7-----10-10-9-9---------|---------7-7-----10-10-----14\---|
|-----0-0-----0-0-----------0-0-7-7-|-8-8-0-0-----0-0-------0-0-------|
|-----------------------------------|---------------------------------|
|-----------------------------------|---------------------------------|
|
|  Q      E   E    E    E   E   E     E   E   E   E    E    E    E  E
|-----------------------------------|---------------------------------|
|-----------------------------------|---------------------------------|
|-----------------------------------|---------------------------------|
|-----------------------------------|---------------------------------|
|--8\-----0---0----0----0---0---0---|-8---0---3---0----5----0----7--0-|
|--8\-----0---0----0----0---0---0---|-8---0---3---0----5----0----7--0-|


  C5                                              F5    C5    G5    C5
   H        S  S  S  S  S  S  S  S   E  E E  S  S  S  S  S  S  S  S  S  S
|----------------------------------|--------------------------------------|
|----------------------------------|--------------------------------------|
|-/7-------15-15-14-14-12-12-14-14-|-7-17---17-17-14-14-15-15-14-14-15-15-|
|----------------------------------|------0-------------------------------|
|----------------------------------|--------------------------------------|
|----------------------------------|--------------------------------------|
|
|  E E E E  E     E     E     E      E  E E  E     E     E     E     E
|----------------------------------|--------------------------------------|
|----------------------------------|--------------------------------------|
|----------------------------------|--------------------------------------|
|----------------------------------|--------------------------------------|
|--0-0-0-0--0-----0-----0-----0----|-0--0-0--0-----5-----0-----7-----0----|
|--0-0-0-0--0-----0-----0-----0----|-0--0-0--0-----5-----0-----7-----0----|


  G#5 C5                                  G#5   C5  Eb5   C5  F5    C5  G5    C5
  Q    S  S S S  S  S  S  S  S  S  S  S    S  S S S  S  S S S  S  S S S  S  S  S  S
|---------------------------------------|-------------------------------------------|
|---------------------------------------|-------------------------------22-22-20-20-|
|-7---15-15-----15-15-14-14-12-12-10-10-|-15-15-----17-17-----19-19-----22-22-21-21-|
|-----------0-0-------------------------|-------0-0-------0-0-------0-0-------------|
|---------------------------------------|-------------------------------------------|
|---------------------------------------|-------------------------------------------|
|
| Q    E    E    E     E     E     E       E    E    E    E    E    E    E     E
|---------------------------------------|-------------------------------------------|
|---------------------------------------|-------------------------------------------|
|---------------------------------------|-------------------------------------------|
|---------------------------------------|-------------------------------------------|
|-8\---0----0----0-----0-----0-----0----|--8----0----3----0----5----0----7-----0----|
|-8\---0----0----0-----0-----0-----0----|--8----0----3----0----5----0----7-----0----|


 Out-Chorus
  G#5
   E E E E  E E E E     E   E E  E  E E E E
|-------------------|-----------------------|
|-18----------------|-(18)------------------|
|-19-7---7------9---|--19---7----7------9---|
|----------10-------|--------------10-------|
|-------------------|-----------------------|
|--8---8------8---8-|---8-----8-------8---8-|
|  W                    W
|
|  E E E E  E E E E     E   E E  E  E E E E
|-------------------|-----------------------|
|-------------------|-----------------------|
|----7---7------9---|------10---10------7---|
|----------10-------|--------------12-------|
|-------------------|-----------------------|
|--8---8------8---8-|---8-----8-------8---8-|
|
| Gtr III
|  W                   +W
|-------------------|-----------------------|
|-------------------|-----------------------|
|-------------------|-----------------------|
|--8----------------|--(8)------------------|
|--8----------------|--(8)------------------|
|--8----------------|--(8)------------------|


  Bb5
   E E  E E  E  E E  E     E  E  E E  E  E E  E
|----------------------|-------------------------|
|----------------------|-------------------------|
|----7----7-------9----|------7----7-------7-----|
|-----------10---------|-------------10----------|
|----------------------|-------------------------|
|-10---10------10---10-|--10----10------10---10--|
|
|  E E  E E  E  E E  E     E  E  E E  E  E E  E
|----------------------|-------------------------|
|----------------------|-------------------------|
|----7----7-------9----|------7----7-------7-----|
|-----------10---------|-------------10----------|
|----------------------|-------------------------|
|-10---10------10---10-|--10----10------10---10--|
|
|  W                      +W
|----------------------|-------------------------|
|----------------------|-------------------------|
|----------------------|-------------------------|
|-10-------------------|-(10)--------------------|
|-10-------------------|-(10)--------------------|
|-10-------------------|-(10)--------------------|


  G#5
  E E E E  E E E E    E   E E  E  E E E E
|------------------|----------------------|
|------------------|----------------------|
|---7---7------9---|------7----7------9---|
|---------10-------|-------------10-------|
|------------------|----------------------|
|-8---8------8---8-|--8-----8-------8---8-|
|
| E E E E  E E E E    E   E E  E  E E E E
|------------------|----------------------|
|------------------|----------------------|
|---7---7------9---|-----10---10------7---|
|---------10-------|-------------12-------|
|------------------|----------------------|
|-8---8------8---8-|--8-----8-------8---8-|
|
| W                  +W
|------------------|----------------------|
|------------------|----------------------|
|------------------|----------------------|
|-8----------------|-(8)------------------|
|-8----------------|-(8)------------------|
|-8----------------|-(8)------------------|


  C5
  E   E   E E  E   E   E E   E   E   E   E    E   E   E   E
|--------------------------|------------------------------------|
|--------------------------|------------------------------------|
|-----7-----7----------9---|-----7-------7------------7---------|
|-------------10-----------|-----------------10-----------------|
|--------------------------|------------------------------------|
|-0-------0--------0-----0-|-0-------0------------0-------0-----|
|
| E   E   E E  E   E   E E   E   E   E   E    E   E   E   E
|--------------------------|------------------------------------|
|--------------------------|------------------------------------|
|-----7-----7----------9---|-----7-------7------------7---------|
|-------------10-----------|-----------------10-----------------|
|--------------------------|------------------------------------|
|-0-------0--------0-----0-|-0-------0------------0-------0-----|
|
| PM--------------------------------------------------------|
| S S S S Q    S S S S Q     S S S S S S S S  S S S S S S S S
|--------------------------|------------------------------------|
|--------------------------|------------------------------------|
|--------------------------|------------------------------------|
|--------------------------|------------------------------------|
|-0-0-0-0-0----0-0-0-0-0---|-0-0-0-0-0-0-0-0--0-0-0-0-0-0-0-0---|
|-0-0-0-0-0----0-0-0-0-0---|-0-0-0-0-0-0-0-0--0-0-0-0-0-0-0-0---|


  G#5
  E E E E  E E E E    E   E E  E  E E E E
|------------------|----------------------|
|------------------|----------------------|
|---7---7------9---|------7----7------9---|
|---------10-------|-------------10-------|
|------------------|----------------------|
|-8---8------8---8-|--8-----8-------8---8-|
|
| E E E E  E E E E    E   E E  E  E E E E
|------------------|----------------------|
|------------------|----------------------|
|---7---7------9---|-----10---10------7---|
|---------10-------|-------------12-------|
|------------------|----------------------|
|-8---8------8---8-|--8-----8-------8---8-|
|
| W                  +W
|------------------|----------------------|
|------------------|----------------------|
|------------------|----------------------|
|-8----------------|-(8)------------------|
|-8----------------|-(8)------------------|
|-8----------------|-(8)------------------|


  Bb5
   E E  E E  E  E E  E     E  E  E E  E  E E  E
|----------------------|-------------------------|
|----------------------|-------------------------|
|----7----7-------9----|------7----7-------7-----|
|-----------10---------|-------------10----------|
|----------------------|-------------------------|
|-10---10------10---10-|--10----10------10---10--|
|
|  E E  E E  E  E E  E     E  E  E E  E  E E  E
|----------------------|-------------------------|
|----------------------|-------------------------|
|----7----7-------9----|------7----7-------7-----|
|-----------10---------|-------------10----------|
|----------------------|-------------------------|
|-10---10------10---10-|--10----10------10---10--|
|
|  W                      +W
|----------------------|-------------------------|
|----------------------|-------------------------|
|----------------------|-------------------------|
|-10-------------------|-(10)--------------------|
|-10-------------------|-(10)--------------------|
|-10-------------------|-(10)--------------------|


  G#5
  E E E E  E E E E    E   E E  E  E E E E
|------------------|----------------------|
|------------------|----------------------|
|---7---7------9---|------7----7------9---|
|---------10-------|-------------10-------|
|------------------|----------------------|
|-8---8------8---8-|--8-----8-------8---8-|
|
| E E E E  E E E E    E   E E  E  E E E E
|------------------|----------------------|
|------------------|----------------------|
|---7---7------9---|-----10---10------7---|
|---------10-------|-------------12-------|
|------------------|----------------------|
|-8---8------8---8-|--8-----8-------8---8-|
|
| W                  +W
|------------------|----------------------|
|------------------|----------------------|
|------------------|----------------------|
|-8----------------|-(8)------------------|
|-8----------------|-(8)------------------|
|-8----------------|-(8)------------------|


  C5
  E   E   E E  E   E   E E   E   E   E   E    E   E   E   E
|--------------------------|------------------------------------|
|--------------------------|------------------------------------|
|-----7-----7----------9---|-----7-------7------------7---------|
|-------------10-----------|-----------------10-----------------|
|--------------------------|------------------------------------|
|-0-------0--------0-----0-|-0-------0------------0-------0-----|
|
| E   E   E E  E   E   E E   E   E   E   E    E   E   E   E
|--------------------------|------------------------------------|
|--------------------------|------------------------------------|
|-----7-----7----------9---|-----7-------7------------7---------|
|-------------10-----------|-----------------10-----------------|
|--------------------------|------------------------------------|
|-0-------0--------0-----0-|-0-------0------------0-------0-----|
|
| PM--------------------------------------------------------|
| S S S S Q    S S S S Q     S S S S S S S S  S S S S S S S S
|--------------------------|------------------------------------|
|--------------------------|------------------------------------|
|--------------------------|------------------------------------|
|--------------------------|------------------------------------|
|-0-0-0-0-0----0-0-0-0-0---|-0-0-0-0-0-0-0-0--0-0-0-0-0-0-0-0---|
|-0-0-0-0-0----0-0-0-0-0---|-0-0-0-0-0-0-0-0--0-0-0-0-0-0-0-0---|


  C5
  Gtr I
                                                            ~~~~
   E E E E E E  E E    E  E E E  E E E E    E  E  E E E E   Q
|-------------------|--------------------|----------------------||
|-------------------|--------------------|----------------------||
|-10---9---7---10---|--9----7---10---9---|--7----12---9---[10]--||
|----0---0---0----0-|-----0---0----0---0-|-----0----0---0-------||
|-------------------|--------------------|----------------------||
|-------------------|--------------------|----------------------||
|
| Gtr III
|  W                  +W                   +W
|-------------------|--------------------|----------------------||
|-------------------|--------------------|----------------------||
|-------------------|--------------------|----------------------||
|--0----------------|-(0)----------------|-(0)------------------||
|--0----------------|-(0)----------------|-(0)------------------||
|--0----------------|-(0)----------------|-(0)------------------||


   Breakdown
    C5
    Gtrs I, III
    PM--------------------------------------------------------
    S S S S S E. S S S S S E.   S S S S S E. S S S S S S S S
||----------------------------|------------------------------|
||o---------------------------|------------------------------|
||----------------------------|------------------------------|
||----------------------------|------------------------------|
||o-0-0-0-0-0----0-0-0-0-0----|-0-0-0-0-0----0-0-0-0-0-0-0-0-|
||--0-0-0-0-0----0-0-0-0-0----|-0-0-0-0-0----0-0-0-0-0-0-0-0-|


 --------------------------------------------------------|
  S S S S S E. S S S S S E.   S S S S S E. S S S S S S S S
|---------------------------|---------------------------------||
|---------------------------|--------------------------------o||
|---------------------------|---------------------------------||
|---------------------------|---------------------------------||
|-0-0-0-0-0----0-0-0-0-0----|-0-0-0-0-0----0-0-0-0-0-0-0-0---o||
|-0-0-0-0-0----0-0-0-0-0----|-0-0-0-0-0----0-0-0-0-0-0-0-0----||


    PM-----------------------------------------------------------
    S S S S S +E. S S S S S +E.   S S S S S +E. S S S S S S S S
||------------------------------|-------------------------------|
||o-----------------------------|-------------------------------|
||------------------------------|-------------------------------|
||------------------------------|-------------------------------|
||o-0-0-0-0-0-(0)-0-0-0-0-0-(0)-|-0-0-0-0-0-(0)-0-0-0-0-0-0-0-0-|
||--0-0-0-0-0-(0)-0-0-0-0-0-(0)-|-0-0-0-0-0-(0)-0-0-0-0-0-0-0-0-|


 -----------------------------------------------------------|
  S S S S S +E. S S S S S +E.   S S S S S +E. S S S S S S S S
|-----------------------------|----------------------------------||
|-----------------------------|---------------------------------o||
|-----------------------------|----------------------------------||
|-----------------------------|----------------------------------||
|-0-0-0-0-0-(0)-0-0-0-0-0-(0)-|-0-0-0-0-0-(0)-0-0-0-0-0-0-0-0---o||
|-0-0-0-0-0-(0)-0-0-0-0-0-(0)-|-0-0-0-0-0-(0)-0-0-0-0-0-0-0-0----||


  PM-----------|
  S S S S S E. H
|-------------------*|
|-------------------*|
|-------------------*|
|-------------------*|
|-0-0-0-0-0-0-------*|
|-0-0-0-0-0-0-------*|


 

Duration Legend
---------------
W - whole; H - half; Q - quarter; E - 8th; S - 16th; T - 32nd; X - 64th; a - acciaccatura
+ - note tied to previous; . - note dotted; .. - note double dotted
Uncapitalized letters represent notes that are staccato (1/2 duration)
Irregular groupings are notated above the duration line
Duration letters will always appear directly above the note/fret number it represents the
duration for.  Duration letters with no fret number below them represent rests.  Multi-
bar rests are notated in the form Wxn, where n is the number of bars to rest for.  Low
melody durations appear below the staff

Tablature Legend
----------------
 h   - hammer-on
 p   - pull-off
 b   - bend
 pb  - pre-bend
 r   - bend release (if no number after the r, then release immediately)
 /\  - slide into or out of (from/to "nowhere")
 s   - legato slide
 S   - shift slide
 - natural harmonic
[n]  - artificial harmonic
n(n) - tapped harmonic
 ~   - vibrato
 tr  - trill
 T   - tap
 TP  - trem. picking
 PM  - palm muting
\n/  - tremolo bar dip; n = amount to dip
 \n  - tremolo bar down
 n/  - tremolo bar up
/n\  - tremolo bar inverted dip
 =   - hold bend; also acts as connecting device for hammers/pulls
 <> - volume swell (louder/softer)
 x   - on rhythm slash represents muted slash
 o   - on rhythm slash represents single note slash

Misc Legend
-----------
 |  - bar
||  - double bar
||o - repeat start
o|| - repeat end
*|  - double bar (ending)
 :  - bar (freetime)
 $  - Segno
 &  - Coda
Tempo markers -  = BPM(8/16=s8/s16), where s8 = swing 8ths, s16 = swing 16ths

 





Comments


Popular War Of Ages tabs & chords
All Consuming Fire Intro Tabs
Battle On 2 Tabs
Brothers In Arms Intro Tabs
Instrumental 3 Tabs
One Day Intro Tabs
Salvation Tabs
Salvation 1 Tabs
Scars Of Tommorow Tabs
Stand Your Ground Tabs
Through The Flames Tabs


Song lyrics



↑ Back to top | Tablatures and chords are parodies/interpretations of the original songs. You may use it for private study, scholarship, research or language learning purposes only
© 2014 AZChords.com Contact us | Privacy policy | DMCA | Add/correct tabs | Request tabs | Top 50 tabs