>
 >
Absence Of Fear

Absence Of Fear Guitar Tabs

War Of Ages - Absence Of Fear chords, tabs, tablatures, lyrics

Guitar lessons | Add/correct | Request | Top 50 tabs Artists:  A B C D E F G H I J K L M N O P Q R S T U V W X Y Z 0-9

Absence Of Fear Guitar Tabs – War Of Ages

CD, Sheet music, Poster

Do you like Absence Of Fear? Share with your friends now
Tabs
War Of Ages
Pride Of The Wicked


  Intro


    Gtr I 
    PM-----|                   PM-----|                  
Eb|--------------------------|--------------------------|
Bb|--------------------------|--------------------------|
F#|------------------5-------|--------------------------|
C#|-0000-0-0-5h7-------------|-0000-0-0-5h7-----5-------|
G#|-0000-0-0-----8p7---8-7-3-|-0000-0-0-----8p7---8-7-5-|
C#|-0000-0-0-----------------|-0000-0-0-----------------|
  |                                         
  | Gtr II                                                
  | PM-----|                   PM-----|         
Eb|--------------------------|--------------------------|
Bb|--------------------------|--------------------------|
F#|--------------------------|--------------------------|
C#|-0000-0-0-----------------|-0000-0-0-----------------|
G#|-0000-0-0-----------------|-0000-0-0-----------------|
C#|-0000-0-0-----------------|-0000-0-0-----------------|

    Gtr I (contd.)
    PM-----|                   PM-----|                
Eb|--------------------------|-----------------|
Bb|--------------------------|-----------------|
F#|------------------5-------|-----------------|
C#|-0000-0-0-5h7-------------|-0000-0-0--7~-5~-|
G#|-0000-0-0-----8p7---8-7-3-|-0000-0-0--5~-3~-|
C#|-0000-0-0-----------------|-0000-0-0--------|
  |                                              
  | Gtr II (contd.)                               
  | PM-----|                   PM-----|        
Eb|--------------------------|-----------------|
Bb|--------------------------|-----------------|
F#|--------------------------|-----------------|
C#|-0000-0-0-----------------|-0000-0-0--7~-5~-|
G#|-0000-0-0-----------------|-0000-0-0--5~-3~-|
C#|-0000-0-0-----------------|-0000-0-0--------| 

    Gtr I 
    PM-----|                   PM-----|                  
Eb|--------------------------|--------------------------|
Bb|--------------------------|--------------------------|
F#|------------------5-------|--------------------------|
C#|-0000-0-0-5h7-------------|-0000-0-0-5h7-----5-------|
G#|-0000-0-0-----8p7---8-7-3-|-0000-0-0-----8p7---8-7-5-|
C#|-0000-0-0-----------------|-0000-0-0-----------------|
  |                                            
  | Gtr II                                                
  | PM-----|                   PM-----|         
Eb|--------------------------|--------------------------|
Bb|--------------------------|--------------------------|
F#|--------------------------|--------------------------|
C#|-0000-0-0-----------------|-0000-0-0-----------------|
G#|-0000-0-0-----------------|-0000-0-0-----------------|
C#|-0000-0-0-----------------|-0000-0-0-----------------| 

    Gtr I (contd.)
    PM-----|                   PM-----|                  
Eb|--------------------------|-----------------|
Bb|--------------------------|-----------------|
F#|------------------5-------|-----------------|
C#|-0000-0-0-5h7-------------|-0000-0-0--7~-5~-|
G#|-0000-0-0-----8p7---8-7-3-|-0000-0-0--5~-3~-|
C#|-0000-0-0-----------------|-0000-0-0--------|
  |
  | Gtr II (contd.)                                               
  | PM-----|                   PM-----|         
Eb|--------------------------|-----------------|
Bb|--------------------------|-----------------|
F#|--------------------------|-----------------|
C#|-0000-0-0-----------------|-0000-0-0--7~-5~-|
G#|-0000-0-0-----------------|-0000-0-0--5~-3~-|
C#|-0000-0-0-----------------|-0000-0-0--------|


    Gtr I 
    PM-----|                   PM-----|                  
Eb|--------------------------|--------------------------|
Bb|--------------------------|--------------------------|
F#|------------------5-------|--------------------------|
C#|-0000-0-0-5h7-------------|-0000-0-0-5h7-----5-------|
G#|-0000-0-0-----8p7---8-7-3-|-0000-0-0-----8p7---8-7-5-|
C#|-0000-0-0-----------------|-0000-0-0-----------------|
  |                                                               
  |  Gtr II                                   
  | PM-----|                        PM-----|                     
Eb|-------------------------------|-------------------------------|
Bb|-------------------------------|-------------------------------|
F#|---------------------9---------|-------------------------------|
C#|-0000-0-0-8h10-----------------|-0000-0-0-8h10-------8---------|
G#|-0000-0-0------12p10---13-12-8-|-0000-0-0------12p10---12-10-8-|
C#|-0000-0-0----------------------|-0000-0-0----------------------|


    Gtr I (contd.)
    PM-----|                    PM-----|      
Eb|--------------------------|------------------|
Bb|--------------------------|------------------|
F#|------------------5-------|------------------|
C#|-0000-0-0-5h7-------------|--0000-0-0--7~-5~-|
G#|-0000-0-0-----8p7---8-7-3-|--0000-0-0--5~-3~-|
C#|-0000-0-0-----------------|--0000-0-0--------|
  |                                            
  |  Gtr II (contd.)                               
  | PM-----|                        PM-----|      
Eb|-------------------------------|-----------------|
Bb|-------------------------------|-----------------|
F#|---------------------9---------|-----------------|
C#|-0000-0-0-8h10-----------------|-0000-0-0--7~-5~-|
G#|-0000-0-0------12p10---13-12-8-|-0000-0-0--5~-3~-|
C#|-0000-0-0----------------------|-0000-0-0--------|

    Gtr I 
    PM-----|                   PM-----|                  
Eb|--------------------------|--------------------------|
Bb|--------------------------|--------------------------|
F#|------------------5-------|--------------------------|
C#|-0000-0-0-5h7-------------|-0000-0-0-5h7-----5-------|
G#|-0000-0-0-----8p7---8-7-3-|-0000-0-0-----8p7---8-7-5-|
C#|-0000-0-0-----------------|-0000-0-0-----------------|
  |                                                               
  |  Gtr II                                   
  | PM-----|                        PM-----|                     
Eb|-------------------------------|-------------------------------|
Bb|-------------------------------|-------------------------------|
F#|---------------------9---------|-------------------------------|
C#|-0000-0-0-8h10-----------------|-0000-0-0-8h10-------8---------|
G#|-0000-0-0------12p10---13-12-8-|-0000-0-0------12p10---12-10-8-|
C#|-0000-0-0----------------------|-0000-0-0----------------------|


    Gtr I (contd.)
    PM-----|                    PM-----|      
Eb|--------------------------|------------------|
Bb|--------------------------|------------------|
F#|------------------5-------|------------------|
C#|-0000-0-0-5h7-------------|--0000-0-0--7~-5~-|
G#|-0000-0-0-----8p7---8-7-3-|--0000-0-0--5~-3~-|
C#|-0000-0-0-----------------|--0000-0-0--------|
  |                                            
  |  Gtr II (contd.)                               
  | PM-----|                        PM-----|      
Eb|-------------------------------|-----------------|
Bb|-------------------------------|-----------------|
F#|---------------------9---------|-----------------|
C#|-0000-0-0-8h10-----------------|-0000-0-0--7~-5~-|
G#|-0000-0-0------12p10---13-12-8-|-0000-0-0--5~-3~-|
C#|-0000-0-0----------------------|-0000-0-0--------|


   Verse 1


    Gtr I
       PM   -   -   ---   -   -   ---   -   -    
Eb|---------------------------------------------|
Bb|---------------------------------------------|
F#|---------------------------------------------|
C#|-------5---8---7-----3---5---7-----2---5---3-|
G#|--5------------------------------------------|
C#|----00---0---0---000---0---0---000---0---0---|
  |                                              
  | Gtr II
  |    PM   -   -   ---   -   -   ---   -   -    
Eb|---------------------------------------------|
Bb|---------------------------------------------|
F#|---------------------------------------------|
C#|-------5---8---7-----3---5---7-----2---5---3-|
G#|--5------------------------------------------|
C#|----00---0---0---000---0---0---000---0---0---|
                                               
    Gtr I (contd.)
    PM----          -       -
Eb|---------------|-----------------|
Bb|---------------|-----------------|
F#|---------------|-----------------|
C#|--------5/7--7-|---3-5-7---5-7-5-|
G#|--------3/5--5-|-----------------|
C#|-000000--------|-3-------5-------|
  |    Ending 1       Ending 2
  | Gtr II (contd.)
  | PM----          -       -
Eb|---------------|-----------------|
Bb|---------------|-----------------|
F#|---------------|-----------------|
C#|--------5/7--7-|-----------------|
G#|--------3/5--5-|---5-7-8---7-8-7-|
C#|-000000--------|-5-------7-------|
       Ending 1       Ending 2


    Gtr I
       PM   -   -   ---   -   -   ---   -   -    
Eb|---------------------------------------------|
Bb|---------------------------------------------|
F#|---------------------------------------------|
C#|-------5---8---7-----3---5---7-----2---5---3-|
G#|--5------------------------------------------|
C#|----00---0---0---000---0---0---000---0---0---|
  |                                              
  | Gtr II
  |    PM    -    -    ---    -    -    ---   -    -     
Eb|-----------------------------------------------------|
Bb|-----------------------------------------------------|
F#|-------12---15---14-----10---12---14-----9---12---10-|
C#|-12--------------------------------------------------|
G#|-----------------------------------------------------|
C#|----00----0----0----000----0----0----000---0----0----|
  Only play this part once then go back to the lower part 

    Gtr I (contd.)
    PM----          -       -
Eb|---------------|-----------------|
Bb|---------------|-----------------|
F#|---------------|-----------------|
C#|--------5/7--7-|---3-5-7---5-7-5-|
G#|--------3/5--5-|-----------------|
C#|-000000--------|-3-------5-------|
  |     Ending 1      Ending 2
  | Gtr II (contd.)
  | PM----          -       -
Eb|---------------|-----------------|
Bb|---------------|-----------------|
F#|---------------|-----------------|
C#|--------5/7--7-|-----------------|
G#|--------3/5--5-|---5-7-8---7-8-7-|
C#|-000000--------|-5-------7-------|
       Ending 1       Ending 2


  Chorus 1


    Gtr I
        PM-   ---   ---   -      --   --   --   -  
Eb|-----------------------------------------------|
Bb|-----------------------------------------------|
F#|-2-2-------------------------------------------|
C#|---------5-----3-----2---/5-5----3----2----0---|
G#|-1-1-1-1---1-1---1-1---1-----------------------|
C#|------------------------------00---00---00---0-|
  |
  | Gtr II
  |        PM-   ---   ---   -      ---   ---   ---   -  
Eb|-----------------------------------------------------|
Bb|-----------------------------------------------------|
F#|-----------------------------------------------------|
C#|--10-10-----8-----7-----5---/8-8-----7-----5---------|
G#|-------------------------------------------------8---|
C#|--8--8--8-8---8-8---8-8---8------0-0---0-0---0-0---0-|

    Gtr I (contd.)
        PM-   ---   ---   -      ---   ---   ---   -     
Eb|--------------------------------------------------|
Bb|--------------------------------------------------|
F#|-2-2----------------------------------------------|
C#|---------5-----3-----2---/5-5-----3---------------|
G#|-1-1-1-1---1-1---1-1---1----------------3-----5---|
C#|------------------------------0-0---0-0---0-0---0-|
  |
  | Gtr II (contd.)
  |        PM-   ---   ---   -      ---   ---   ---   -     
Eb|-----------------------------------------------------|
Bb|-----------------------------------------------------|
F#|-----------------------------------------------------|
C#|--10-10-----8-----7-----5---/8-8-----7---------------|
G#|-------------------------------------------7-----8---|
C#|--8--8--8-8---8-8---8-8---8------0-0---0-0---0-0---0-|


    Gtr I
         PM-   ---   ---   -      ---   ---   ---   -     
Eb|---------------------------------------------------|
Bb|---------------------------------------------------|
F#|--2-2----------------------------------------------|
C#|----------5-----3-----2---/5-5-----3-----2-----0---|
G#|--1-1-1-1---1-1---1-1---1--------------------------|
C#|-------------------------------0-0---0-0---0-0---0-|
  |
  | Gtr II
  |        PM-   ---   ---   -      ---   ---   ---   -   
Eb|-----------------------------------------------------|
Bb|-----------------------------------------------------|
F#|-----------------------------------------------------|
C#|--10-10-----8-----7-----5---/8-8-----7-----5---------|
G#|-------------------------------------------------8---|
C#|--8--8--8-8---8-8---8-8---8------0-0---0-0---0-0---0-|


    Gtr I (contd.)
         PM-   ---   ---   -      ---   ---   
Eb|-----------------------------------------------|
Bb|-----------------------------------------------|
F#|--2-2------------------------------------------|
C#|----------5-----3-----2---/5-5-----3-----------|
G#|--1-1-1-1---1-1---1-1---1----------------3-3/5-|
C#|-------------------------------0-0---0-0-------|
  |
  | Gtr II (contd.)
  |        PM-   ---   ---   -      ---   --- 
Eb|--------------------------------------------------|
Bb|--------------------------------------------------|
F#|--------------------------------------------------|
C#|--10-10-----8-----7-----5---/8-8------------------|
G#|-------------------------------------------7-7/10-|
C#|--8--8--8-8---8-8---8-8---8------0-0---0-0--------|


   Verse 2


    Gtr I
       PM   -   -   ---   -   -   ---   -   -    
Eb|---------------------------------------------|
Bb|---------------------------------------------|
F#|---------------------------------------------|
C#|-------5---8---7-----3---5---7-----2---5---3-|
G#|--5------------------------------------------|
C#|----00---0---0---000---0---0---000---0---0---|
  |                                              
  | Gtr II
  |    PM   -   -   ---   -   -   ---   -   -    
Eb|---------------------------------------------|
Bb|---------------------------------------------|
F#|---------------------------------------------|
C#|-------5---8---7-----3---5---7-----2---5---3-|
G#|--5------------------------------------------|
C#|----00---0---0---000---0---0---000---0---0---|
                                               
    Gtr I (contd.)
    PM----          -       -
Eb|---------------|-----------------|
Bb|---------------|-----------------|
F#|---------------|-----------------|
C#|--------5/7--7-|---3-5-7---5-7-5-|
G#|--------3/5--5-|-----------------|
C#|-000000--------|-3-------5-------|
  |    Ending 1       Ending 2
  | Gtr II (contd.)
  | PM----          -       -
Eb|---------------|-----------------|
Bb|---------------|-----------------|
F#|---------------|-----------------|
C#|--------5/7--7-|-----------------|
G#|--------3/5--5-|---5-7-8---7-8-7-|
C#|-000000--------|-5-------7-------|
       Ending 1       Ending 2


    Gtr I
       PM   -   -   ---   -   -   ---   -   -    
Eb|---------------------------------------------|
Bb|---------------------------------------------|
F#|---------------------------------------------|
C#|-------5---8---7-----3---5---7-----2---5---3-|
G#|--5------------------------------------------|
C#|----00---0---0---000---0---0---000---0---0---|
  |                                              
  | Gtr II
  |    PM    -    -    ---    -    -    ---   -    -     
Eb|-----------------------------------------------------|
Bb|-----------------------------------------------------|
F#|-------12---15---14-----10---12---14-----9---12---10-|
C#|-12--------------------------------------------------|
G#|-----------------------------------------------------|
C#|----00----0----0----000----0----0----000---0----0----|
  Only play this part once then go back to the lower part 

    Gtr I (contd.)
    PM----          -       -
Eb|---------------|-----------------|
Bb|---------------|-----------------|
F#|---------------|-----------------|
C#|--------5/7--7-|---3-5-7---5-7-5-|
G#|--------3/5--5-|-----------------|
C#|-000000--------|-3-------5-------|
  |     Ending 1      Ending 2
  | Gtr II (contd.)
  | PM----          -       -
Eb|---------------|-----------------|
Bb|---------------|-----------------|
F#|---------------|-----------------|
C#|--------5/7--7-|-----------------|
G#|--------3/5--5-|---5-7-8---7-8-7-|
C#|-000000--------|-5-------7-------|
       Ending 1       Ending 2


  Chorus 2


    Gtr I
        PM-   ---   ---   -      --   --   --   -  
Eb|-----------------------------------------------|
Bb|-----------------------------------------------|
F#|-2-2-------------------------------------------|
C#|---------5-----3-----2---/5-5----3----2----0---|
G#|-1-1-1-1---1-1---1-1---1-----------------------|
C#|------------------------------00---00---00---0-|
  |
  | Gtr II
  |        PM-   ---   ---   -      ---   ---   ---   -  
Eb|-----------------------------------------------------|
Bb|-----------------------------------------------------|
F#|-----------------------------------------------------|
C#|--10-10-----8-----7-----5---/8-8-----7-----5---------|
G#|-------------------------------------------------8---|
C#|--8--8--8-8---8-8---8-8---8------0-0---0-0---0-0---0-|

    Gtr I (contd.)
        PM-   ---   ---   -      ---   ---   ---   -     
Eb|--------------------------------------------------|
Bb|--------------------------------------------------|
F#|-2-2----------------------------------------------|
C#|---------5-----3-----2---/5-5-----3---------------|
G#|-1-1-1-1---1-1---1-1---1----------------3-----5---|
C#|------------------------------0-0---0-0---0-0---0-|
  |
  | Gtr II (contd.)
  |        PM-   ---   ---   -      ---   ---   ---   -     
Eb|-----------------------------------------------------|
Bb|-----------------------------------------------------|
F#|-----------------------------------------------------|
C#|--10-10-----8-----7-----5---/8-8-----7---------------|
G#|-------------------------------------------7-----8---|
C#|--8--8--8-8---8-8---8-8---8------0-0---0-0---0-0---0-|


    Gtr I
         PM-   ---   ---   -      ---   ---   ---   -  
Eb|---------------------------------------------------|
Bb|---------------------------------------------------|
F#|--2-2----------------------------------------------|
C#|----------5-----3-----2---/5-5-----3-----2-----0---|
G#|--1-1-1-1---1-1---1-1---1--------------------------|
C#|-------------------------------0-0---0-0---0-0---0-|
  |
  | Gtr II
  |        PM-   ---   ---   -      ---   ---   ---   -  
Eb|-----------------------------------------------------|
Bb|-----------------------------------------------------|
F#|-----------------------------------------------------|
C#|--10-10-----8-----7-----5---/8-8-----7-----5---------|
G#|-------------------------------------------------8---|
C#|--8--8--8-8---8-8---8-8---8------0-0---0-0---0-0---0-|
                                   


    Gtr I (contd.)
         PM-   ---   ---   -      ---     
Eb|---------------------------------------------|
Bb|---------------------------------------------|
F#|--2-2--------------------------------7-\-----|
C#|----------5-----3-----2---/5-5-----3-x--x14--|
G#|--1-1-1-1---1-1---1-1---1------------5-/-----|
C#|-------------------------------0-0-----------|
  |
  | Gtr II (contd.)
  |        PM-   ---   ---   -      ---    
Eb|-----------------------------------------------|
Bb|-----------------------------------------------|
F#|-----------------------------------------------|
C#|--10-10-----8-----7-----5---/8-8-----7-10-\----|
G#|-------------------------------------------x6--|
C#|--8--8--8-8---8-8---8-8---8------0-0---8--/----|
Let Gtr I play the last part 8 times before Gtr II plays the 8 10


  Breakdown


    Gtr I
          PM-   -         ---    -        ---   ---   --   -   -
Eb|----------------------------------------------------------------|
Bb|----------------------------------------------------------------|
F#|----------------------------------------------------------------|
C#|----------------------------------------------------------------|
G#|-3-7-5-----5---8-12-10-----10---7-10-8-----8-----8----3---7---5-|
C#|-------000---0---------000----0--------000---000---00---0---0---|
  |
  | Gtr II
  |       PM-   -         ---    -        ---   ---    --   -    -
Eb|------------------------------------------------------------------|
Bb|------------------------------------------------------------------|
F#|------------------------------------------------------------------|
C#|------------------------------------------------------------------|
G#|-3-7-5-----5---8-12-10-----10---7-10-8-----8-----12----7---10---8-|
C#|-------000---0---------000----0--------000---000----00---0----0---|


    Gtr I
    PM--   ---   -         ---    -        ---   ---   --   -   -
Eb|-----------------------------------------------------------------|
Bb|-----------------------------------------------------------------|
F#|-----------------------------------------------------------------|
C#|-----------------------------------------------------------------|
G#|------5-----5---8-12-10-----10---7-10-8-----8-----8----3---7---5~|
C#|-0000---000---0---------000----0--------000---000---00---0---0---|
  |
  | Gtr II
  | PM--   ---   -         ---    -        ---   ---    --   -    -
Eb|-------------------------------------------------------------------|
Bb|-------------------------------------------------------------------|
F#|-------------------------------------------------------------------|
C#|-------------------------------------------------------------------|
G#|------8-----5---8-12-10-----10---7-10-8-----8-----12----7---10---8~|
C#|-0000---000---0---------000----0--------000---000----00---0----0---|


    Gtr I
                           PM-   -   -
Eb|---------------------------------------|
Bb|---------------------------------------|
F#|---------------------------------------|
C#|---------------------------------------|
G#|-8-12-10~-7-10-8-7-8~-8-----3---7---5~-|
C#|------------------------0-0---0---0----|
  |
  | Gtr II 
  |                              PM-   -    -
Eb|----------------------------------------------|
Bb|----------------------------------------------|
F#|----------------------------------------------|
C#|----------------------------------------------|
G#|-12-15-13~-10-13-12-10-12~-12-----7---10---8~-|
C#|------------------------------0-0---0----0----|

    Gtr I (contd.)

Eb|-------------------------------|
Bb|-------------------------------|
F#|-------------------------------|
C#|-------------------------------|
G#|--8-12-10~-7-10-8-7-8~-3~-3/5~-|
C#|-------------------------------|
  |
  | Gtr II (contd.)
  | 
Eb|------------------------------------|
Bb|------------------------------------|
F#|------------------------------------|
C#|------------------------------------|
G#|-12-15-13~-10-13-12-10-12~-7~-7/10~-|
C#|------------------------------------|

    Gtr I
     PM-------------------------------------------------|*
Eb|-----------------------------|--------------------------|
Bb|-----------------------------|--------------------------|
F#|-----------------------------|--------------------------|
C#|-----------------------------|--------------------------|
G#|--------------------33333333-|--------------------33333-|
C#|--0-0-000-0-000-0-0----------|--0-0-000-0-000-0-0-------|
  |
  | Gtr II
  |  PM-------------------------------------------------|*
Eb|-----------------------------|--------------------------|
Bb|-----------------------------|--------------------------|
F#|-----------------------------|--------------------------|
C#|-----------------------------|--------------------------|
G#|--------------------33333333-|--------------------33333-|
C#|--0-0-000-0-000-0-0----------|--0-0-000-0-000-0-0-------|


    Gtr I
     PM-------------------------------------------------|
Eb|-----------------------------|--------------------------|
Bb|-----------------------------|--------------------------|
F#|-----------------------------|--------------------------|
C#|-----------------------------|--------------0--0-----0--|
G#|--------------------33333333-|--------------0--0-----0--|
C#|--0-0-000-0-000-0-0----------|--0-0-000-0-000--0-----0--|
  |
  | Gtr II
  |                                            PM----|
Eb|--------------------------------------------------------|
Bb|--------------------------------------------------------|
F#|--------------------------------------------------------|
C#|--0~~~~~~~~~~~~~~~~~~~~~~~~~~~~~~~~~~~~~~~~~0-----0-----|
G#|--0~~~~~~~~~~~~~~~~~~~~~~~~~~~~~~~~~~~~~~~~~0-----0-----|
C#|--0~~~~~~~~~~~~~~~~~~~~~~~~~~~~~~~~~~~~~~~~~0-----0-----|


    Gtr I
     PM-------------------------------------------------|
Eb|-----------------------------|---------------------------|
Bb|-----------------------------|---------------------------|
F#|-----------------------------|---------------------------|
C#|-----------------------------|---------------------------|
G#|--------------------33333333-|--------------------33333~-|
C#|--0-0-000-0-000-0-0----------|--0-0-000-0-000-0-0--------|
  |
  | Gtr II
  |  PM-------------------------------------------------|
Eb|-----------------------------|---------------------------|
Bb|-----------------------------|---------------------------|
F#|-----------------------------|---------------------------|
C#|-----------------------------|---------------------------|
G#|--------------------33333333-|--------------------77777~-|
C#|--0-0-000-0-000-0-0----------|--0-0-000-0-000-0-0--------|


    Gtr I
     PM----------------------------------------|
Eb|-----------------------------|-----------------|
Bb|-----------------------------|-----------------|
F#|-----------------------------|-----------------|
C#|--0-0-000-0-000-0-0----------|--0-0-000-0-000--|
G#|--0-0-000-0-000-0-0-33333333-|--0-0-000-0-000--|
C#|--0-0-000-0-000-0-0----------|--0-0-000-0-000--|
  |
  | Gtr II
  |  PM----------------------------------------|
Eb|-----------------------------|-----------------|
Bb|-----------------------------|-----------------|
F#|-----------------------------|-----------------|
C#|--0-0-000-0-000-0-0----------|--0-0-000-0-000--|
B#|--0-0-000-0-000-0-0-33333333-|--0-0-000-0-000--|
C#|--0-0-000-0-000-0-0----------|--0-0-000-0-000--|


  
  Outro


    Gtr I
     PM--------|          PM-------|
Eb|---------------|    |--------------------------------|
Bb|---------------|    |--------------------------------|
F#|---------------|    |--------------------------------|
C#|--00000-00000--|    |--00000-0000--------------------|
G#|--00000-00000--|    |--00000-0000-12-8-7-7h8p7-------|
C#|--00000-00000--|    |--00000-0000--------------------|
  |                \    
  | Gtr II          x3  
  |  PM--------|   /      PM-------|
Eb|---------------|    |--------------------------------|
Bb|---------------|    |--------------------------------|
F#|---------------|    |--------------------------------|
C#|--00000-00000--|    |--00000-0000--------------------|
G#|--00000-00000--|    |--00000-0000-15-12-10-10h12p10--|
C#|--00000-00000--|    |--00000-0000--------------------|



    Gtr I
Eb|---------------------------------------------------------------|
Bb|---------------------------------------------------------------|
F#|---------------------------------------------------------------|
C#|--12-8-0-10-7-0-8-5-0-5-7-0-7-8-0-8-10-0-7-8-0-7-8-7-5-7-5-3-2-|
G#|---------------------------------------------------------------|
C#|---------------------------------------------------------------| x4
  |               
  | Gtr II
  |  PM--------|    
Eb|---------------|
Bb|---------------|
F#|---------------|
C#|--00000-00000--|
G#|--00000-00000--|
C#|--00000-00000--| x4



    Gtr I
Eb|--------|
Bb|--------|
F#|--------|
C#|--0--0--|
G#|--0--0--|
C#|--0--0--|
  |     
  | Gtr II
  |  
Eb|--------|
Bb|--------|
F#|--------|
C#|--7--7--|
G#|--5--5--|
C#|--0--0--|





Comments


Popular War Of Ages tabs & chords
Battle On Tabs
Battle On 2 Tabs
Collapse Tabs
Instrumental Tabs
Instrumental 2 Tabs
Instrumental 3 Tabs
Salvation 1 Tabs
Salvation Intro 1 Tabs
Stand Your Ground Tabs
Yet Another Fallen Eve Tabs


Song lyrics



↑ Back to top | Tablatures and chords are parodies/interpretations of the original songs. You may use it for private study, scholarship, research or language learning purposes only
© 2014 AZChords.com Contact us | Privacy policy | DMCA | Add/correct tabs | Request tabs | Top 50 tabs