>
 >
Watching From A Distance

Watching From A Distance Guitar Tabs

Warning - Watching From A Distance chords, tabs, tablatures, lyrics

Guitar lessons | Add/correct | Request | Top 50 tabs Artists:  A B C D E F G H I J K L M N O P Q R S T U V W X Y Z 0-9

Watching From A Distance Guitar Tabs – Warning

CD, Sheet music, Poster

Do you like Watching From A Distance? Share with your friends now
Bass TabsTabs
================================================================================
                                 W A R N I N G

                                       -

                 W A T C H I N G   F R O M   A   D I S T A N C E
================================================================================


                             WATCHING FROM A DISTANCE
                            (c) Cyclone Records (2008)


                               Tune Down 2 Full Steps
                                   C F A# D# G C

                                  Tempo = 58 BPM
                               Time Signature = 4/4



                          -----------------------------

                                 PADDY MCMULLAN

                                   Version 1.0
                               29th September 2009
                             -----------------------

                             Tablature Symbols Used:


 p            -  Pull-Off
 h            -  Hammer-On
 (/)          -  Legato Slide (Blank space indicates length of slide)
 \            -  Slide Down to/Down From (Blank space indicates length of slide)
 /            -  Slide Up To/Up From (Blank space indicates length of slide)
 ( )          -  Ghost Note/Tied Note/Implied Note
 9b10         -  Bend Note
 10r9         -  Release Bend
 |---|        -  Let Ring
 |____[1,2,3] -  Alternative Endings



================================================================================
Section 1: Guitars 1 & 2 with Heavy Distortion (Play twice)
================================================================================


* Let notes ring wherever possible *


||-------------------|-------------------| |
||-------------------|-----------0-------| |
||---------12--------|--------0----------|*|
||-----10------------|-----7-------------|*| x 2
||--0----------------|--5----------------| |
||-------------------|-------------------| |


|----------------------------|--------------------|------------------------|
|----------------------------|-----------0--------|------------------------|
|--------0---------0------0--|--------0-----------|------------------------|
|-----9--------10-----10-----|-----2--------------|-------4--2----0--------|
|--7--------8----------------|--3-----------------|--2---------------4--0--|
|----------------------------|--------------------|------------------------|


|-----------------------| |
|-----------------------| |
|-----------------------|*|
|-----------------------|*|
|--5--5 / 7--3----------| |
|--3--3 / 5--1----------| |



================================================================================
Section 2.1: Guitar 1 (Play twice)
================================================================================


||----------------------| |------------------| |--------------------|
||----------------------| |------------------| |--------------------|
||----------------------|3|------------------|4|--------------------|
||----------------------|/|------------------|/|--------------------|
||--0------0------------|4|--2----3----2--2--|4|--0--------2--------|
||------------0----0----| |------------------| |--------------------|


|--------------------|----------------------| |------------------|
|--------------------|----------------------| |------------------|
|--------------------|----------------------|3|------------------|
|--------------------|----------------------|/|------------------|
|--3--------2--------|--0------0------------|4|--2----3----2--2--|
|--------------------|------------0----0----| |------------------|


|-----------------| |---------------------| |
|-----------------| |---------------------| |
|-----------------|4|---------------------|*|
|-----------4-----|/|---------------------|*|
|--0--------------|4|-----------3----0----| |
|--------------2--| |--3------------------| |



================================================================================
Section 2.2: Guitar 2 (Play twice)
================================================================================


||----------------------| |------------------| |--------------------|
||----------------------| |------------------| |--------------------|
||----------------------|3|------------------|4|--------------------|
||----------------------|/|------------------|/|--------------------|
||--0------0------------|4|--5----7----2--2--|4|--3--------5--------|
||------------0----0----| |------------------| |--------------------|


|--------------------|----------------------| |------------------|
|--------------------|----------------------| |------------------|
|--------------------|----------------------|3|------------------|
|--2--------4--------|----------------------|/|------------------|
|--------------------|--0------0------------|4|--5----7----2--2--|
|--------------------|------------0----0----| |------------------|


|-----------------| |---------------------| |
|-----------------| |---------------------| |
|-----------------|4|---------------------|*|
|-----------4-----|/|---------------------|*|
|--3--------------|4|--2--------3----5----| |
|--------------2--| |---------------------| |



================================================================================
Section 2.3: Guitars 3 & 4 w/ Heavy Distortion (Play twice)
================================================================================


||----------------------------| |-------------------|
||----------------------------| |-------------------|
||----------------------------|3|-----0-(0)---------|
||-------10--9----------------|/|-------------------|
||--0-----------10~~-- \ 7----|4|--5-----7----9--7--|
||----------------------------| |-------------------|

|_______________________________________________________[1]
| |-----------------------------|-------------------------|
| |-----------------------------|-------------------------|
|4|-----------------------------|-------------------------|
|/|-----------------------------|-------------------------|
|4|---------(10/12)--10----9----|--7------5 / 9----10~~---|
| |--8~~------------------------|-------------------------|

|__________________________________________________[2]
|-------------------|------------------------------| |
|-------------------|------------------------------| |
|-------------------|------------------------------|*|
|-------------------|------------------------------|*|
|------------12--9--|--10--------(10/12)--(12/14)--| |
|--8~~--------------|------------------------------| |



During the last bar of the second ending, guitar 3 plays the following instead:



||----------------------------------| |
||----------------------------------| |
||----------------------------------|*|
||----------------------------------|*|
||--10----9 h 10--(10/12)--(12/14)--| |
||----------------------------------| |



================================================================================
Section 3: Guitars 1 & 2 (Play 7 times) [ Tempo = 68 BPM ]
================================================================================


     |------------|
| |------------------------| |----------------|---------------|---------------|
| |------------------------| |----------------|---------------|---------------|
|4|------------------------|3|----------------|---------------|---------------|
|/|-------2---(2/5)---9----|/|-(9)-------2----|--3------------|--5------------|
|4|--0----------------7----|4|-(7)-------2----|--3------------|--5------------|
| |-------------------7----| |-(7)-------0----|--1------------|--3------------|

                                   |----------|
|________________________________________________________________[1-6]
|---------------|---------------|------------------|---------------| |
|---------------|---------------|------------------|---------------| |
|---------------|---------------|-------------9----|--(9)----------|*|
|--2------------|--5------------|-------10---------|--(10)---------|*|
|--3------------|--2------------|--0---------------|--(0)----------| |
|---------------|---------------|------------------|---------------| |

|______________________________[7]
|--0------------|---------------||
|--1------------|---------------||
|--0------------|--9------------||
|--2------------|--9------------||
|--3------------|--7------------||
|---------------|--7------------||



In bars 5 and 6 Guitar 1 takes the high notes and Guitar 2 takes the low



Guitar 2 rests for the first half of the first bar before joining in



================================================================================
Section 4: Guitars 1 & 2 (Play 4 times)
================================================================================


||---------------------|---------------|------------------|------------------|
||---------------------|---------------|------------------|------------------|
||---------------------|---------------|------------------|------------------|
||---------------------|--7------------|------------------|------------------|
||--10----8--7--8-- \--|--7------------|--7----5----3--2--|------------2--3--|
||---------------------|--5------------|------------------|--3----0----------|


|---------------|---------------|--0------------|---------------||
|---------------|---------------|--1------------|---------------||
|---------------|---------------|--0------------|--9------------||
|--3------------|--5------------|--2------------|--9------------||
|--3------------|--5------------|--3------------|--7------------||
|--1------------|--3------------|---------------|--7------------||



During the 4th repeat, ignore the last two bars



================================================================================
Guitars 1 & 2 play Section 3 five times, ignoring the alternative ending
================================================================================

================================================================================
Section 5.1: Guitars 1 & 2 (Play 4 times)
================================================================================


||---------------|---------------|--------------------|--------------------|
||---------------|---------------|--------------------|--------------------|
||---------------|---------------|--------------------|--------------------|
||---------------|---------------|--------------------|--------------------|
||--0------------|--8------------|--8------------8----|--5------------5----|
||---------------|---------------|--------------------|--------------------|


|--------------------| |
|--------------------| |
|--------------------|*|
|--------------------|*|
|--7------------7----| |
|--------------------| |



================================================================================
Section 5.2: Guitar 3 (Play twice)
================================================================================



This part enters after Section 5.1 has repeated twice



||------------------|----------------|------------------------|
||------------------|----------------|------------------------|
||------------------|----------------|------------------------|
||--2--------2--- / |--7--------7----|-(7/10)----9----7-------|
||------------------|----------------|------------------------|
||------------------|----------------|------------------------|

                      |___________________________[1]
|---------------------|---------------------------| |
|---------------------|---------------------------| |
|---------------------|---------------------------|*|
|--7--------7----7----|--9----9b10r9----9----5----|*|
|---------------------|---------------------------| |
|---------------------|---------------------------| |

|_________________________[2]
|--------------------------||
|--------------------------||
|--------------------------||
|--6----6b7r6----6---------||
|---------------------7----||
|--------------------------||



================================================================================
Section 7.1: Guitars 1 & 3 (Play 4 times) [ Tempo = 70 BPM ]
================================================================================


||--------------------|-------------------|-------------------|
||--------------------|-------------------|-------------------|
||--------------------|-------------------|-------------------|
||--------------------|--2----------------|--3----------------|
||---0----------------|--3----------------|--3----------------|
||--------------------|-------------------|-------------------|


|-------------------| |
|-------------------| |
|-------------------|*|
|-------------------|*| x 3
|--(3)--------------| |
|-------------------| |


||-------------------|-------------------|
||-------------------|-------------------|
||-------------------|-------------------|
||--7----------------|--(7)--------------|
||-------------------|-------------------|
||-------------------|-------------------|


|-------------------|---------------------||
|-------------------|---------------------||
|-------------------|---------------------||
|-------------------|-----------5----6----|| x 1
|--5----------------|--5------------------||
|-------------------|---------------------||



During bars 2 and 3, Guitar 1 takes the high notes and Guitar 2 takes the low



================================================================================
Section 7.2: Guitar 3 (Play 4 times)
================================================================================


||----------------------|----------------------|-------------------|
||----------------------|----------------------|-------------------|
||----------------------|----------------------|-------------------|
||-----------10----9----|-----------7----------|-------------------|
||--0-------------------|--7-------------10----|-------------------|
||----------------------|----------------------|--8----------------|

|_________________[1-3]
|-------------------| |
|-------------------| |
|-------------------|*|
|-------------------|*| x 3
|-------------------| |
|--(8)--------------| |

|__________________________________________|
|----------------------|-------------------|
|----------------------|-------------------|
|----------------------|-------------------|
|-----------7----------|-------------------|
|----------------10----|-------------------|
|-(8)------------------|--8----------------|

|_______________________________________________________________[4]
|---------------------|--------------------|---------------------||
|---------------------|--------------------|---------------------||
|---------------------|--------------------|---------------------||
|-----------9----7----|---------------7----|---------------------||
|---------------------|--8-----------------|--8----5-------------||
|--(8)----------------|--------------------|------------7--------||



================================================================================
Outro: Guitars 1 & 2 (Play 5 times) [ Tempo = 78 BPM ]
================================================================================


||-------------------|-------------------|--------------------|
||-------------------|-------------------|--------------------|
||-------------------|-------------------|--------------------|
||-------------------|-------------------|--------------------|
||--7----------------|--9----------------|--10----------------|
||--5----------------|--7----------------|--8-----------------|


|----------------------|--------------------|---------------------|
|----------------------|--------------------|---------------------|
|----------------------|--------------------|---------------------|
|----------------------|--------------------|---------------------|
|--10----8-------------|--0-----------------|--3--------3----0----|
|-------------7--------|---------------3----|---------------------|


|-------------------|----------------------| |
|-------------------|----------------------| |
|-------------------|----------------------|*|
|-------------------|----------------------|*| x 4
|--8----------------|-(8)-------5----5-- / | |
|-------------------|-----------3----3-- / | |


|-------------------|
|-------------------|
|-------------------|
|-------------------|
|--7----------------|
|--5----------------|

|-------------------|--------------------|-------------------------||
|-------------------|--------------------|---------------------R---||
|-------------------|--------------------|---------------------E---||
|-------------------|--------------------|---------------------S---|| x 1
|--9----------------|--10----------------|--10----8------------T---||
|--7----------------|--8-----------------|-------------7--- \------||



Guitar 2 mimics Guitar 1 for all but the 5th, 6th and 7th bars, for which it
substitutes the following:



|--------------------|---------------------|--------------------|
|--------------------|---------------------|--------------------|
|--------------------|---------------------|--------------------|
|---------------9----|---------------------|--9--------7--------|
|--0-----------------|--7--------3----0----|--------------------|
|--------------------|---------------------|--------------------|



================================================================================
End
================================================================================


Tab summary:        Section 1 x 2
                    Section 2 x 2
                    Section 3 x 7
                    Section 4 x 4
                    Section 3 x 5
                    Section 5:
                              Part I x 4
                              Part II x 2
                    Section 7 x 4
                    Outro x 5

                    END





Comments


Popular Warning tabs & chords
Bridges Bass Tabs
Echoes Bass Tabs
Faces Bass Tabs
Watching From A Distance Bass Tabs
Bridges Tabs
Echoes Tabs
Faces Tabs


Song lyrics



↑ Back to top | Tablatures and chords are parodies/interpretations of the original songs. You may use it for private study, scholarship, research or language learning purposes only
© 2014 AZChords.com Contact us | Privacy policy | DMCA | Add/correct tabs | Request tabs | Top 50 tabs