>
 >
Watching From A Distance

Watching From A Distance Bass Tabs

Warning - Watching From A Distance chords, tabs, tablatures, lyrics

Guitar lessons | Add/correct | Request | Top 50 tabs Artists:  A B C D E F G H I J K L M N O P Q R S T U V W X Y Z 0-9

Watching From A Distance Bass Tabs – Warning

CD, Sheet music, Poster

Do you like Watching From A Distance? Share with your friends now
Bass TabsTabs
================================================================================
                                 W A R N I N G

                                       -

                 W A T C H I N G   F R O M   A   D I S T A N C E
================================================================================


                             WATCHING FROM A DISTANCE
                            (c) Cyclone Records (2008)


                               Tune Down 2 Full Steps
                                     C F A# D#

                                  Tempo = 58 BPM
                               Time Signature = 4/4



                          -----------------------------

                                 PADDY MCMULLAN

                                   Version 1.0
                               29th September 2009
                             -----------------------

                             Tablature Symbols Used:


 (/)          -  Legato Slide (Blank space indicates length of slide)
 \            -  Slide Down to/Down From (Blank space indicates length of slide)
 /            -  Slide Up To/Up From (Blank space indicates length of slide)
 ( )          -  Ghost Note/Tied Note/Implied Note
 |____[1,2,3] -  Alternative Endings
 REST         -  Rest, and sustain rest for duration of blank space



================================================================================
Section 1: Play twice
================================================================================


||---------------------|----------------------|----------------------|
||---------------------|----------------------|----------------------|
||--0------0--0--------|--5------5--5----2----|--0------0--0------0--|
||---------------------|----------------------|----------------------|


|----------------------|---------------------|----------------------|
|----------------------|---------------------|----------------------|
|--5------5--5----2----|--0------0--0--------|--5------5--5----2----|
|----------------------|---------------------|----------------------|


|---------------------------|-------------------------|------------------------|
|---------------------------|-------------------------|-------4--2----0--------|
|--7----7--8---8-8--10--8 \ |--3------3-----5-5p 3-3--|--2---------------4--0--|
|---------------------------|-------------------------|------------------------|


|------------------------| |
|------------------------|*|
|------------------------|*|
|--3--3 / 5--1-----------| |



================================================================================
Section 2: Play twice
================================================================================


| |-----------------------| |------------------| |----------------------|
|4|-----------------------|3|------------------|4|----------------------|
|/|--0------0--7----7-- \ |/|--2----3----2--2--|/|--0------0--2----2----|
|4|-----------------------|4|------------------|4|----------------------|


|----------------------|-----------------------| |------------------|
|----------------------|-----------------------|3|------------------|
|--3------3--2----2----|--0------0--7----7-- \ |/|--2----3----2--2--|
|----------------------|-----------------------|4|------------------|


|------------------| |---------------------| |
|------------7--4--|4|--5------------------|*|
|--0------0--------|/|-----------3----5----|*|
|------------------|4|---------------------| |



================================================================================
Section 3: Play 7 times
================================================================================


| |----------------------| |------------------|---------------|
|4|-------2----5---------|3|------------------|---------------|
|/|--0-------------------|/|------------------|---------------|
|4|-----------------7----|4|-(7)-7----7--0----|--1------------|


|---------------|------------------|------------------|---------------|
|---------------|------------------|------------------|---------------|
|---------------|--3------3--5--3--|--2------2--3--2--|--0------------|
|--3------------|------------------|------------------|---------------|


|---------------| |
|---------------|*|
|-(0)-----------|*|
|---------------| |



The first time this is played the first three notes are replaced with rests



================================================================================
Section 4: Play twice
================================================================================


||-------------------|---------------|------------------|
||-------------------|---------------|------------------|
||--10----8--7--8----|--0------------|--7----5----3--2--|
||-------------------|---------------|------------------|


|------------------|---------------|---------------|---------------|
|------------------|---------------|---------------|---------------|
|------------2--3--|--0------------|--2------------|--3------------|
|--3----0----------|---------------|---------------|---------------|


|---------------| |
|---------------|*|
|---------------|*|
|--0------------| |



On the last repeat ignore the last two bars



================================================================================
Play Section 3 five times
================================================================================

================================================================================
Play Section 5: Play 4 times
================================================================================


| |---------------|---------------| |--------------------|
|3|---------------|---------------|4|--------------------|
|/|--0------------|--8------------|/|--8------------8----|
|4|---------------|---------------|4|--------------------|


|--------------------|--------------------| |
|--------------------|--------------------|*|
|--5------------5----|--7------------7----|*|
|--------------------|--------------------| |



================================================================================
Section 6: Play 4 times
================================================================================


||-------------------|-------------------|-------------------|
||-------------------|-------------------|-------------------|
||--0----------------|--3----------------|--3----------------|
||-------------------|-------------------|-------------------|


|-------------------| |
|-------------------|*|
|--(3)--------------|*| x 3
|-------------------| |

||-------------------|-------------------|-------------------|
||-------------------|-------------------|-------------------|
||--3----------------|--(3)--------------|--5----------------|
||-------------------|-------------------|-------------------|


|---------------------||
|-----------5----6----||
|--5------------------|| x 1
|---------------------||



================================================================================
Outro: Play 5 times
================================================================================


||-------------------|-------------------|-------------------|
||-------------------|-------------------|-------------------|
||--0----------------|--2----------------|--3----------------|
||-------------------|-------------------|-------------------|


|---------------------|--------------------|---------------------|
|--5----3-------------|--------------------|---------------------|
|------------2--------|--0-----------------|--3--------3----0----|
|---------------------|---------------3----|---------------------|


|----------------------|----------------------| |
|----------------------|----------------------|*|
|--8------8--8------8--|--8--8----------------|*|
|----------------------|------------3----3----| |



On the last repeat, ignore the last 4 bars



================================================================================
End
================================================================================


Tab summary:        Section 1 x 2
                    Section 2 x 2
                    Section 3 x 7
                    Section 4 x 4
                    Section 3 x 5
                    Section 5 x 4
                    Section 7 x 4
                    Outro x 5

                    END





Comments


Popular Warning tabs & chords
Bridges Bass Tabs
Echoes Bass Tabs
Faces Bass Tabs
Bridges Tabs
Echoes Tabs
Faces Tabs
Watching From A Distance Tabs


Song lyrics



↑ Back to top | Tablatures and chords are parodies/interpretations of the original songs. You may use it for private study, scholarship, research or language learning purposes only
© 2014 AZChords.com Contact us | Privacy policy | DMCA | Add/correct tabs | Request tabs | Top 50 tabs