>
 >
Echoes

Echoes Guitar Tabs

Warning - Echoes chords, tabs, tablatures, lyrics

Guitar lessons | Add/correct | Request | Top 50 tabs Artists:  A B C D E F G H I J K L M N O P Q R S T U V W X Y Z 0-9

Echoes Guitar Tabs – Warning

CD, Sheet music, Poster

Do you like Echoes? Share with your friends now
Bass TabsTabs
================================================================================
                                 W A R N I N G

                                       -

                                  E C H O E S
================================================================================


                             WATCHING FROM A DISTANCE
                            (c) Cyclone Records (2008)


                               Tune Down 2 Full Steps
                                   C F A# D# G C

                                  Tempo = 58 BPM
                               Time Signature = 4/4



                          -----------------------------

                                 PADDY MCMULLAN

                                   Version 1.0
                                 21st July 2009
                             -----------------------

                             Tablature Symbols Used:


 p            -  Pull-Off
 h            -  Hammer-On
 (/)          -  Legato Slide (Blank space indicates length of slide)
 \            -  Slide Down to/Down From (Blank space indicates length of slide)
 /            -  Slide Up To/Up From (Blank space indicates length of slide)
 ( )          -  Ghost Note/Tied Note/Implied Note
 |---|        -  Let Ring
 |____[1,2,3] -  Alternative Endings



================================================================================
Section 1: Guitars 1 & 2 with Heavy Distortion (Play twice)
================================================================================


                    |--|
||------------------------|-------------------|---------------------|
||------------------------|-------------------|---------------------|
||------------------------|-------------------|---------------------|
||---------------------9--|-(9)---------------|---------------------|
||--5--------3--- / 7-----|-(7)---------------|--5--------3----2----|
||------------------------|-------------------|---------------------|


|----------------------| |
|----------------------| |
|----------------------|*|
|----------------------|*|
|--(2)----------2--- / | |
|----------------------| |



================================================================================
Section 2: Guitars 1 & 2 (Play 8 times)
================================================================================


                    |--|                          |_____________________
||------------------------|-----------------------|---------------------|
||------------------------|-----------------------|---------------------|
||------------------------|-----------------------|---------------------|
||---------------------9--|-(9)-------------------|---------------------|
||--5--------3--- / 7-----|-(7)-----------10-- \ -|--5--------3----2----|
||------------------------|-----------------------|---------------------|

 ____________________[1-7]
|----------------------| |
|----------------------| |
|----------------------|*|
|----------------------|*|
|--(2)----------2--- / | |
|----------------------| |

|____________________________________________[8]
|---------------------|-----------------------||
|---------------------|-----------------------||
|---------------------|-----------------------||
|----------------5----|--(5)------5----5--- / ||
|--5--------3----5----|--(5)------5----5--- / ||
|----------------3----|--(3)------3----3--- / ||




The first 7 repeats of this riff are a variation on Section 1



The tempo gradually increases to 64 BPM over the course of the last 4 bars



================================================================================
Section 3: Guitars 1 & 2 (Play 4 times)
================================================================================


||---------------------|---------------------| |--------------|
||---------------------|---------------------| |--------------|
||---------------------|---------------------|2|--------------|
||--7--------7----7----|--4--------4----4----|/|--------5-----|
||--7--------7----7----|--4--------4----4----|4|--3--5-----5--|
||--5--------5----5----|--2--------2----2----| |--------------|


| |-------0------------|-------0------------|-----------------------|
| |-------0------------|-------0------------|-----------------------|
|4|-------0------------|-------0------------|-----------------------|
|/|-------5------------|-------5------------|--12--------10----9----|
|4|--7----7------------|-------7------------|--12--------10----9----|
| |--0----0------------|--0----0------------|--10--------8-----7----|



|---------------------| |
|---------------------| |
|---------------------|*|
|-(9)-------9----9----|*|
|-(9)-------9----9----| |
|-(7)-------7----7----| |



During the last repeat, ignore the last two bars



Over the course of this riff the tempo gradually increases to 66 BPM



================================================================================
Guitars 1 & 2 play Section 2 eight times [ Tempo gradually becomes 68 BPM ]
================================================================================

================================================================================
Section 4: Guitars 1 & 2 (Play 6 times)
================================================================================

                                             |____________________
||---------------------|---------------------|--------------------|
||---------------------|---------------------|--------------------|
||---------------------|---------------------|--------------------|
||---------------------|---------------------|--------------------|
||--4------------4-- / |--9--------9----9----|--9------------9----|
||--2------------2-- / |--7--------7----7----|--6------------6----|


 ____________________[1-5]
|----------------------| |
|----------------------| |
|----------------------|*|
|-----------5----------|*|
|--9-----------5-------| |
|--7--------------3----| |

|___________________________________________[6]
|---------------------|----------------------||
|---------------------|----------------------||
|---------------------|----------------------||
|---------------------|----------------------||
|--7--------9---------|-----------2--2--2----||
|--5-------------6----|--3--------0--0--0----||



================================================================================
Outro: Guitars 1 & 2 [Repeats Outlined Below]
================================================================================


-------
Part 1:
-------


             |-----|                                       |-----|
||----------------------|----------------------|----------------------|
||----------------------|----------------------|----------------------|
||-----------------2----|----------------------|-----------------2----|
||--------------4-------|----------------------|--------------4-------|
||--9--------0----------|--4----5--------5-- / |--9--------0----------|
||--7-------------------|--2----3--------3-- / |--7-------------------|

   |------------------|
|------------------------| |
|------------------------| |
|------------------------|*|
|--5-------5-------5-----|*| x 2
|--3-------3-------3-----| |
|-------3-------3-----3--| |



-------
Part 2:
-------

||----------------------|---------------------| |
||----------------------|---------------------| |
||----------------------|---------------------|*|
||----------------------|------------------*--|*| x 4
||--5--------3----2--2--|--(3)----------2--2--| |
||----------------------|---------------------| |



* This note is only played on the second repeat


-------
Part 1: x 4 [Just the first two bars]
-------

-------
Part 2: x 3
-------

-------
Part 3: End on the following
-------


||---------------------|-------------------||
||---------------------|-------------------||
||---------------------|-------------------||
||---------------------|-------------------||
||--5--------3----2----|--(2)--------------||
||---------------------|-------------------||



Let the last note ring out



================================================================================
Lead Section During Outro: Guitar 3 with Heavy Distortion (Play once)
================================================================================


  1                      2
||----------------------|--------------------|
||----------------------|--------------------|
||----------------------|--------------------|
||--12--------11--------|--7----9------------|
||----------------------|--------------------|
||----------------------|--------------------|

 3                           4
|---------------------------|------------------------|
|---------------------------|------------------------|
|------------11--9----------|--9 h 11----------------|
|--12---------------11--12--|----------12------------|
|---------------------------|------------------------|
|---------------------------|------------------------|

 5                      6                    7
|----------------------|--------------------|---------------------------|
|----------------------|--------------------|---------------------------|
|----------------------|--------------------|------------11--9----------|
|--12--------11--------|--7----9------------|--12---------------11--12--|
|----------------------|--------------------|---------------------------|
|----------------------|--------------------|---------------------------|

 8                        9                         10
|------------------------|-------------------------|-------------------|
|------------------------|-------------------------|-------------------|
|--9 h 11----------------|--11--------9----11------|-------------------|
|----------12------------|---------------------12--|--(12)-------------|
|------------------------|-------------------------|-------------------|
|------------------------|-------------------------|-------------------|

 11                        12                  13
|-------------------------|-------------------|-------------------------|
|-------------------------|-------------------|-------------------------|
|--11--------9----11------|-------------------|--11--------9----11------|
|---------------------12--|--(12)-------------|---------------------12--|
|-------------------------|-------------------|-------------------------|
|-------------------------|-------------------|-------------------------|

 14                  15                        16
|-------------------|-------------------------|-------------------|
|-------------------|-------------------------|-------------------|
|-------------------|--11--------9----11------|-------------------|
|--(12)-------------|---------------------12--|--(12)-------------|
|-------------------|-------------------------|-------------------|
|-------------------|-------------------------|-------------------|

 17                           18
|----------------------------|-------------------------|
|----------------------------|-------------------------|
|----------------------------|-------------------------|
|--12--------14--12--11------|-------9----(7\5)--4--2--|
|------------------------12--|--9----------------------|
|----------------------------|-------------------------|

 19                               20
|--------------------------------|--------------------|
|--------------------------------|--------------------|
|--------------------------------|--------------------|
|--4---------11h12-11----14--11--|--7----9------------|
|-----2--- /---------------------|--------------------|
|--------------------------------|--------------------|

 21                         22
|--------------------------|------------------------|
|--------------------------|------------------------|
|--11~~-------(9\7)--6-----|-----------------7 h 9--|
|-----------------------7--|--4----0------9---------|
|--------------------------|------------------------|
|--------------------------|------------------------|

 23                         24                   25
|--------------------------|--------------------|----------------------|
|--------------------------|--------------------|----------------------|
|--(9/11)-------9----7--6--|--------------------|----------------------|
|----------9---------------|--7----0------------|--4--------2----4--0--|
|--------------------------|--------------------|----------------------|
|--------------------------|--------------------|----------------------|

 26                  27                     28
|-------------------|----------------------|-------------------|
|-------------------|----------------------|-------------------|
|-------------------|----------------------|-------------------|
|--(0)--------------|--4--------2----4--0--|--(0)--------------|
|-------------------|----------------------|-------------------|
|-------------------|----------------------|-------------------|

 29                     30                  31
|----------------------|-------------------|---------------------|
|----------------------|-------------------|---------------------|
|----------------------|-------------------|---------------------|
|--4--------2----4--0--|--(0)--------------|---------------------|
|----------------------|-------------------|--5--------3----2----|
|----------------------|-------------------|---------------------|

 32
|-------------------||
|-------------------||
|-------------------||
|-------------------||
|--(2)--------------||
|-------------------||



Let the last note ring out



================================================================================
End
================================================================================


Tab summary:        Section 1 x 2
                    Section 2 x 8
                    Section 3 x 4
                    Section 2 x 8
                    Section 4 x 6
                    Outro:
                          Part 1 x 2
                          Part 2 x 4
                          Part 1 x 4 [First two bars only]
                          Part 2 x 3
                          Part 3 x 1
                    Lead Section x 1

                    END





Comments


Popular Warning tabs & chords
Bridges Bass Tabs
Echoes Bass Tabs
Faces Bass Tabs
Watching From A Distance Bass Tabs
Bridges Tabs
Faces Tabs
Watching From A Distance Tabs


Song lyrics



↑ Back to top | Tablatures and chords are parodies/interpretations of the original songs. You may use it for private study, scholarship, research or language learning purposes only
© 2014 AZChords.com Contact us | Privacy policy | DMCA | Add/correct tabs | Request tabs | Top 50 tabs