>
 >
Echoes

Echoes Bass Tabs

Warning - Echoes chords, tabs, tablatures, lyrics

Guitar lessons | Add/correct | Request | Top 50 tabs Artists:  A B C D E F G H I J K L M N O P Q R S T U V W X Y Z 0-9

Echoes Bass Tabs – Warning

CD, Sheet music, Poster

Do you like Echoes? Share with your friends now
Bass TabsTabs
================================================================================
                                 W A R N I N G

                                       -

                                  E C H O E S
================================================================================


                             WATCHING FROM A DISTANCE
                            (c) Cyclone Records (2008)


                               Tune Down 2 Full Steps
                                     C F A# D#

                                  Tempo = 58 BPM
                               Time Signature = 4/4



                          -----------------------------

                                 PADDY MCMULLAN

                                   Version 1.0
                                 21st July 2009
                             -----------------------

                             Tablature Symbols Used:


 \            -  Slide Down to/Down From (Blank space indicates length of slide)
 /            -  Slide Up To/Up From (Blank space indicates length of slide)
 ( )          -  Ghost Note/Tied Note/Implied Note
 |---|        -  Let Ring
 |____[1,2,3] -  Alternative Endings



================================================================================
Section 1: Play twice
================================================================================


                  |--|
||----------------------|-------------------|---------------------|
||-------------------9--|--(9)--------------|---------------------|
||--5--------3----7-----|--(7)--------------|--5--------3----2----|
||----------------------|-------------------|---------------------|


|--------------------| |
|--------------------|*|
|--(2)----------2----|*|
|--------------------| |



================================================================================
Section 2: Play 8 times
================================================================================


                  |--|                          |_____________________
||----------------------|-----------------------|---------------------|
||-------------------9--|--(9)------------------|---------------------|
||--5--------3----7-----|--(7)----------10--- \ |--5--------3----2----|
||----------------------|-----------------------|---------------------|


 __________________[1-7]
|--------------------| |
|--------------------|*|
|--(2)----------2----|*|
|--------------------| |

|__________________________________________[8]
|---------------------|---------------------||
|---------------------|---------------------||
|--5--------3---------|---------------------||
|----------------3----|--(3)------3----3----||



The first 7 repeats of this riff are a variation on Section 1



The tempo gradually increases to 64 BPM over the course of the last 4 bars



================================================================================
Section 3: Play 4 times
================================================================================


||---------------------|---------------------| |--------------|
||---------------------|---------------------|2|--------5-----|
||---------------------|---------------------|/|--3--5-----5--|
||--5--------5----5----|--2--------2----2----|4|--------------|

     |------|              |-----|
| |---------------------|---------------------|-----------------------|
|4|---------------------|---------------------|--0--------14----12----|
|/|-------10------------|-------10------------|-----------------------|
|4|--0------------------|--0------------------|-----------------------|


|---------------------| |
|-(12)----------------|*|
|---------------------|*|
|-----------7----7----| |



During the last repeat, ignore the last two bars



Over the course of this riff the tempo gradually increases to 66 BPM



================================================================================
Play Section 2 eight times [ Tempo gradually becomes 68 BPM ]
================================================================================

================================================================================
Section 4: Play 6 times
================================================================================

                                             |____________________
||---------------------|---------------------|--------------------|
||---------------------|---------------------|--------------------|
||---------------------|---------------------|--------------------|
||--2------------2-- / |--7--------7----7----|--6------------6----|


 ____________________[1-5]
|----------------------| |
|-----------5----------|*|
|--------------5-------|*|
|--7--------------3----| |


|___________________________________________[6]
|---------------------|----------------------||
|---------------------|----------------------||
|-----------9---------|----------------------||
|--5-------------6----|--3--------0--0--0----||



================================================================================
Outro: Repeats Outlined Below
================================================================================


-------
Part 1:
-------


||--------------------|----------------------|--------------------|
||--------------------|----------------------|--------------------|
||--------------------|----------------------|--------------------|
||--7--------5--------|--2----3--------3-- / |--7--------5--------|


|-------------------------| |
|-------------------------|*|
|--3-------3-------3------|*| x 2
|-------3-------3-----3 / | |



-------
Part 2:
-------

||----------------------|---------------------| |
||----------------------|------------------*--|*|
||--5--------3----2--2--|-(2)-----------2--2--|*| x 4
||----------------------|---------------------| |



* This note is only played on the second repeat


-------
Part 1: x 4 [Just the first two bars]
-------

-------
Part 2: x 3
-------

-------
Part 3: End on the following
-------


||---------------------|-------------------||
||---------------------|-------------------||
||--5--------3----2----|--(2)--------------||
||---------------------|-------------------||



Let the last note ring out



================================================================================
End
================================================================================


Tab summary:        Section 1 x 2
                    Section 2 x 8
                    Section 3 x 4
                    Section 2 x 8
                    Section 4 x 6
                    Outro:
                          Part 1 x 2
                          Part 2 x 4
                          Part 1 x 4 [First two bars only]
                          Part 2 x 3
                          Part 3 x 1
                    END





Comments


Popular Warning tabs & chords
Bridges Bass Tabs
Faces Bass Tabs
Watching From A Distance Bass Tabs
Bridges Tabs
Echoes Tabs
Faces Tabs
Watching From A Distance Tabs


Song lyrics



↑ Back to top | Tablatures and chords are parodies/interpretations of the original songs. You may use it for private study, scholarship, research or language learning purposes only
© 2014 AZChords.com Contact us | Privacy policy | DMCA | Add/correct tabs | Request tabs | Top 50 tabs