>
 >
Bridges

Bridges Bass Tabs

Warning - Bridges chords, tabs, tablatures, lyrics

Guitar lessons | Add/correct | Request | Top 50 tabs Artists:  A B C D E F G H I J K L M N O P Q R S T U V W X Y Z 0-9

Bridges Bass Tabs – Warning

CD, Sheet music, Poster

Do you like Bridges? Share with your friends now
Bass TabsTabs
================================================================================
                                 W A R N I N G

                                       -

                                 B R I D G E S
================================================================================


                             WATCHING FROM A DISTANCE
                            (c) Cyclone Records (2008)


                               Tune Down 2 Full Steps
                                     C F A# D#

                                  Tempo = 52 BPM
                               Time Signature = 4/4



                          -----------------------------

                                 PADDY MCMULLAN

                                   Version 1.0
                                 28th June 2009
                             -----------------------

                             Tablature Symbols Used:


 (/)          -  Legato Slide (Blank space indicates length of slide)
 \            -  Slide Down to/Down From (Blank space indicates length of slide)
 /            -  Slide Up To/Up From (Blank space indicates length of slide)
 ( )          -  Ghost Note/Tied Note/Implied Note
 |____[1,2,3] -  Alternative Endings
 REST         -  Rest, and sustain rest for duration of blank space



================================================================================
Intro: Play twice
================================================================================


||------------------------|-----------------------------|
||------------------------|-----------------------------|
||--2----4-----(4/5)------|-(5)-2--4----(4/7)--5--0--0--|
||----------2-------------|-----------2-----------------|


|-------------------|-------------------|-------------------------|
|-------------------|-------------------|-------------------------|
|--0----------------|-------------------|--2----4-----(4/5)-------|
|-------------------|--2----------------|----------2--------------|


|------------------------------|-----------------11------|
|------------------------------|-----------11--------11--|
|-(5)-2--4----(4/7)--5--0--0 / | -9----------------------|
|-----------2------------------|-------------------------|


|-------------------| |
|-------------------|*|
|--9----------------|*|
|-------------------| |



================================================================================
Section 2: Play 4 times
================================================================================


||-------------------|---------------------|-------------------|
||--5----------------|---------------------|-------------------|
||-------------------|---------------------|-------------------|
||-------------------|--7--------5----2----|--3----------------|


|_________________[1,2,3]
|---------------------| |
|--4------------------|*|
|-------5----4--------|*|
|---------------------| |


|_________________________________________[4]
|-------------------|----------------------||
|-------------------|----------------------||
|-------------------|----------------------||
|--3----------------|-(3)---3----5----7----||



================================================================================
Section 3: Play once
================================================================================


||-------------------|-------------------|-------------------|
||-------------------|-------------------|-------------------|
||-------------------|-------------------|-------------------|
||--5----------------|--2----------------|--3----------------|


|----------------------|-------------------|-------------------|
|----------------------|-------------------|-------------------|
|----------------------|-------------------|-------------------|
|-(3)---3----5----7----|--5----------------|--2----------------|


|-------------------|---------------------||
|-------------------|--5------------------||
|-------------------|-------7----5--------||
|--3----------------|---------------------||



================================================================================
Play the first 4 bars of Section 2 four times
================================================================================

================================================================================
Section 4: Play twice
================================================================================


||-------------------|---------------------|---------------------|
||-------------------|---------------------|---------------------|
||-------------------|---------------------|---------------------|
||--2----------------|--7--------5----2----|--3---------------3--|


|_______________________[1]
|-----------------------| |
|----------5------------|*|
|-------5-------5-------|*|
|--3-----------------3--| |


|____________________[2]
|---------------------||
|--5------------------||
|-------7----4--------||
|---------------------||



================================================================================
Play Section 2 twice, using the alternative ending
================================================================================

================================================================================
Play Section 3 once
================================================================================

================================================================================
Play Section 2 four times, including the alternative ending
================================================================================

================================================================================
Play Section 3 once, leaving out the last bar
================================================================================

================================================================================
Outro: Play 4 times
================================================================================


||-------------------|----------------------||-------------------------|
||-------------------|----------------------||-------------------------|
||-------------------|----------------------||-------------------------|
||--3----------------|-(3)---3----5----7----||--10------10 \ 5------5--|


|----------------------|----------------------|----------------------| |
|----------------------|------------4---------|----------------------|*|
|----------------------|---------4-------4----|----------------------|*|
|--5----3----5----7----|--2-------------------|--2----3----5----7----| |



Ignore bars 1 and 2 during all subsequent repeats.



On the last repeat, replace the last two bars with the following single bar:



||-------R-    -||
||-------E-    -||
||-------S-    -||
||--2----T------||



================================================================================
End
================================================================================


Tab summary:        Intro x 2
                    Section 2 x 4
                    Section 3 x 1
                    Section 2 x 4
                    Section 4 x 2
                    Section 2 x 2
                    Section 3 x 1
                    Section 2 x 4
                    Section 3 x 1
                    Outro x 4

                    END





Comments


Popular Warning tabs & chords
Echoes Bass Tabs
Faces Bass Tabs
Watching From A Distance Bass Tabs
Bridges Tabs
Echoes Tabs
Faces Tabs
Watching From A Distance Tabs


Song lyrics



↑ Back to top | Tablatures and chords are parodies/interpretations of the original songs. You may use it for private study, scholarship, research or language learning purposes only
© 2014 AZChords.com Contact us | Privacy policy | DMCA | Add/correct tabs | Request tabs | Top 50 tabs