>
 >
Mone Pore

Mone Pore Guitar Tabs

Warfaze - Mone Pore chords, tabs, tablatures, lyrics

Guitar lessons | Add/correct | Request | Top 50 tabs Artists:  A B C D E F G H I J K L M N O P Q R S T U V W X Y Z 0-9

Mone Pore Guitar Tabs – Warfaze

CD, Sheet music, Poster

Do you like Mone Pore? Share with your friends now
ChordsTabsUkulele
member who requested for it.
Very easy chord progression, but solid. A nice lesson for beginners, but on the other
hand, the solo parts are tough for anyone.

The lyrics is as follows...

chorus 1:
mone pore shei raater kothaa
tumi aami nodi teere ekaa boshe
koto je gaan, koto je shoor, koto je kothaa
mone pore ki tomaaro?
bolo naa amaae (... tumi bolo naa)

chorus 2:
mone pore shei deener kothaa
kedecheele,
aami toh kokhono chai ni tomaae koshto deete
tumi ki taa jaano na?
bolo naa amaae (... tumi bolo naa)

verse 1:
jaani aami tumi je amaar
toboo keno dishehara
bhaabi aami tumi je paashe
tobu keno aacho dure
(mone pore... )

verse 2:
jaani aami emon i jeebon
toboo mone jaage aasha
bhore jaabe shopone jeebon
jodi tumi thaako paashe

chords to play over chorus...

G-------Bm--C-------D---------G---
mone pore... shei raater kothaa
--------Bm---------C----D------G---
tumi aami nodi teere ekaa boshe
--------Bm---------------C------------D-----G-
koto je gaan, koto je shoor, koto je kothaa
--------Bm-------C-----D-
mone pore ki tomaaro?
---------G------------Bm-------C--------D----
bolo naa amaae ... tumi bolo naa... hmm-hmm

In case you don't how how to play them...

G 320033 (or 355433, preferred)
Bm xx4432 (or 224432, preferred)
C 332010 (or 335553, preferred)
D 200232 (or 557775, preferred)

chords for the verses...

C--------D---------G-----Bm---
jaani aami tumi je amaar
C--------D---------Am---
toboo keno dishehara
C---------D-----------G-----Bm-
bhaabi aami tumi je paashe
C-------D----------Am---
tobu keno aacho dure

Am 002210 (or 577555)

Intro plucking figure --

..G . . . . . . . . Bm. . . . . . . . .C . . . . . . . . D . . . . . . . .
e|--------|--------|--------|--------||--------|--------|--------|--------|
B|--------|--------|--------|--------||--------|--------|--------|--------|
G|------0-|--------|------0-|--------||------0-|--------|------0-|--------|
D|----4---|--------|----4---|--------||----4---|--------|----4---|--------|
A|--2-----|--------|--2-----|--------||--3-----|--------|--5-----|--------|
E|3-------|--------|2-------|--------||0-------|--------|5-------|--------|

Play it twice, then play intro solo --

e|--------|)-------|--------|$-)-----|
B|--------|--------|--------|------@-|
G|----!-@-|--@-!-@-|----!-@-|----!---|
D|--------|--------|--------|--------|
A|9-)-----|--------|--)-----|--------|
E|--------|--------|)-------|--------|

e|--------|--------|--------|--------|
B|%-----B-|/\----R-|%-------|--------|
G|--------|--------|--$-@-!/|\/\-----|
D|--------|--------|--------|--------|
A|--------|--------|--------|--------|
E|--------|--------|--------|--------|

e|----%---|--$-)---|--------|--$-)-$-|
B|--------|--------|--%-@-%-|--------|
G|@-$---$-|@-----$-|@-------|@-------|
D|--------|--------|--------|--------|
A|--------|--------|--------|--------|
E|--------|--------|--------|--------|

... . . . . . . . . . . . . . . . . . .(chorus starts)
e|@-)---)-|--------|--------|--------||--------|--------|
B|----@---|@-8-@-8-|--78)875|--------||--------|--------|
G|--------|--------|--------|754-----||--------|-Let----|
D|--------|--------|--------|---754--||--------|-Ring---|
A|--------|--------|--------|------75||~~------|--------|
E|--------|--------|--------|--------||--------|--------|

) means fret 10(see your pc keyboard, shift+0)
! means fret 11(shift+1)
@ means fret 12(shift+2)
# means fret 13(and so on)
$ means fret 14
% means fret 15

Over the first part of chorus (mone pore... ), play intro plucking figure four times,
though this time slightly changed and with more distortion added --

..G . . . . . . . . Bm. . . . . . . . .C . . . . . . . . D . . . . . . . .
e|--------|--------|--------|--------||--------|--------|--------|--------|
B|--------|--------|--------|--------||--------|--------|--------|--------|
G|------0-|0-------|------0-|0-------||------0-|0-------|------0-|0-------|
D|----4---|4-------|----4---|4-------||----4---|4-------|----4---|4-------|
A|--2-----|2-------|--2-----|2-------||--3-----|3-------|--5-----|5-------|
E|3-------|3-------|2-------|2-------||0-------|0-------|5-------|5-------|

Second part of chorus (bolonaa amaae... ) --

..G5. . . . . . . . B5. . . . . . . . .G . . . . . .B5C5 D5. . . . . . . .
e|--------|--------|--------|--------||--------|--------|--------|--------|
B|--------|--------|--------|--------||--------|--------|--------|--------|
G|--------|--------|--------|--------||--------|--------|--------|--------|
D|--------|--------|--------|--------||--------|--------|--------|--------|
A|5-5-x-5-|5-------|9-9-x-9-|9-------||5-5-x-5-|5---9-)-|@-@-x-@-|@-------|
E|3-3-x-3-|3-------|7-7-x-7-|7-------||3-3-x-3-|3---7-8-|)-)-x-)-|)-------|

..G5. . . . . . . . B5. . . . . . . . .G . . . . . .B5C5 D5. . . . . . . .
e|--------|--------|--------|--------||--------|--------|--------|--------|
B|--------|--------|--------|--------||--------|--------|--------|--------|
G|--------|--------|--------|--------||--------|--------|--------|--------|
D|--------|--------|--------|--------||--------|--------|--------|--------|
A|5-5-x-5-|5-------|9-9-x-9-|9-------||5-5-x-5-|5---9-)-|@-------|--------|
E|3-3-x-3-|3-------|7-7-x-7-|7-------||3-3-x-3-|3---7-8-|)-------|--------|

Verse riff --

..C5. . . . . . .D5 . E5 . . .F#5. . . G5. . . .F#5. . . E5. . . .D5 . . . 
e|--------|--------|--------|--------||--------|--------|--------|--------|
B|--------|--------|--------|--------||--------|--------|--------|--------|
G|--------|--------|--------|--------||--------|--------|--------|--------|
D|5-------|-----/7-|7/9-9-9-|9/!-!-!-||@-------|!-------|9-------|7-------|
A|3-------|-----/5-|5/7-7-7-|7/9-9-9-||)-------|9-------|7-------|5-------|
E|--------|--------|--------|--------||--------|--------|--------|--------|

..C5. . . . . . .D5 . E5 . . .F#5. . . A5. . . .G5 . . . F#5 . . .E5 . . . 
e|--------|--------|--------|--------||--------|--------|--------|--------|
B|--------|--------|--------|--------||--------|--------|--------|--------|
G|--------|--------|--------|--------||--------|--------|--------|--------|
D|5-------|-----/7-|7/9-9-9-|9/!-!-!-||$-------|@-------|!-------|9-------|
A|3-------|-----/5-|5/7-7-7-|7/9-9-9-||@-------|)-------|9-------|7-------|
E|--------|--------|--------|--------||--------|--------|--------|--------|

..C5. . . . . . .D5 . E5 . . .F#5. . . B5. . . .A5 . . . G5. . . .F#5. . . 
e|--------|--------|--------|--------||--------|--------|--------|--------|
B|--------|--------|--------|--------||--------|--------|--------|--------|
G|--------|--------|--------|--------||--------|--------|--------|--------|
D|5-------|-----/7-|7/9-9-9-|9/!-!-!-||^-------|$-------|@-------|!-------|
A|3-------|-----/5-|5/7-7-7-|7/9-9-9-||$-------|@-------|)-------|9-------|
E|--------|--------|--------|--------||--------|--------|--------|--------|

..C5. . . . . . .D5 . E5 . . .F#5. . . A5. . . . . . . . . . . . . . . . . 
e|--------|--------|--------|--------||--------|--------|--------|--------|
B|--------|--------|--------|--------||--------|--------|--------|--------|
G|--------|--------|--------|--------||--------|--------|--------|--------|
D|5-------|-----/7-|7/9-9-9-|9/!-!-!-||$-------|$-------|$-------|$-------|
A|3-------|-----/5-|5/7-7-7-|7/9-9-9-||@-------|@-------|@-------|@-------|
E|--------|--------|--------|--------||--------|--------|--------|--------|

After first verse add this part --

..A5B5. . . . . . . . . . . . . . . .
e|--------|--------|--------|--------|
B|--------|--------|--------|--------|
G|--------|-Let----|--------|--------|
D|$/^-----|-Ring---|--------|--------|
A|@/$-----|--------|--------|--------|
E|--------|--------|--------|--------|

In the same way, ^ is fret 16 (shift+6)

The guitar solo is played after first verse --

..*Prebend(at fret %)
e|BR--B-/\|/\------|----B-R-|--------|
B|--------|--------|--------|--------|
G|--------|--------|--------|--------|
D|--------|--------|--------|--------|
A|--------|--------|--------|--------|
E|--------|--------|--------|--------|

... . . . . . . . . *Prebend(at fret #)
e|$-b-r-b-|$--)----|--------|--------|
B|--------|------@-|B---R-B-|/\------|
G|--------|--------|--------|--------|
D|--------|--------|--------|--------|
A|--------|--------|--------|--------|
E|--------|--------|--------|--------|

e|--------|--------|--------|--------|
B|------)-|----#-)-|@-b-r-b-|r-)-----|
G|!-9-!---|!-9-----|--------|----!---|
D|--------|--------|--------|--------|
A|--------|--------|--------|--------|
E|--------|--------|--------|--------|

... . . . . . . . . . . . . . . . . . .(synth solo starts)
e|--------|--------|--)$----|--------||&-B-/\--|--------|
B|--------|--@---@-|----@-@%|@%@-----||--------|-Let----|
G|----!---|!---!---|-----!--|---$----||--------|-Ring---|
D|9-@---@-|--------|--------|----^$@\||--------|--------|
A|--------|--------|--------|--------||--------|--------|
E|--------|--------|--------|--------||--------|--------|

Legends --

x mute string
B bend full step
R release full step
b bend half step
r release half step
/ slide up
\ slide down

) fret 10 -- ! fret 11 -- @ fret 12
# fret 13 -- $ fret 14 -- % fret 15
^ fret 16 -- & fret 17 -- * fret 18

( fret 19; be careful, NOT fret 10

The synth solo is played over the intro plucking figure --

..G . . . .*Prebend(at fret ")" ) . .
e|--------|--------|--------|--------|
B|--------|B-R---8-|)~~-----|\-----78|
G|--------|--------|--------|--------|
D|--------|--------|--------|--------|
A|--------|--------|--------|--------|
E|--------|--------|--------|--------|

..C . . . . . . . . D . . . . . . . .
e|--------|--------|--------|--------|
B|7~~-x---|--------|---7-x)-|8-x7-x8-|
G|------79|7~--x---|7-x-----|--------|
D|--------|------9-|--------|--------|
A|--------|--------|--------|--------|
E|--------|--------|--------|--------|

..G . . . . . . . . Bm. . . . . . . .
e|--------|--7-)-7-|)-B-----|)~~---\-|
B|8~~-----|8-------|--------|--------|
G|--------|--------|--------|--------|
D|--------|--------|--------|--------|
A|--------|--------|--------|--------|
E|--------|--------|--------|--------|

..C . . . . . . . . D . . . . . . . .
e|------7-|6-7x@---|@-x$-x)-|$-x%-x)-|
B|8-7-8x--|--------|--------|--------|
G|--------|--------|--------|--------|
D|--------|--------|--------|--------|
A|--------|--------|--------|--------|
E|--------|--------|--------|--------|

... . . . . . . . . .(verse 2 starts)
e|&-x$-x--|(-x$-x--||%-------|--------|
B|------%-|------%-||--------|-Let----|
G|--------|--------||--------|-Ring---|
D|--------|--------||--------|--------|
A|--------|--------||--------|--------|
E|--------|--------||--------|--------|

Disclaimer: 
* This is the author's own work and intended for study purpose only.
* The creator and owner of the song has NOT been contacted and taken permission of.
* Any false or misleading information is entirely accidental and/or co-incidental.
* The author takes NO responsiblity to defend any criticism(s) from or on behalf of the
owner of the song. However, any comment(s) or criticism(s) from the forum is always welcome.

Guys (and gals),

I can also include the bass and drums parts for the song if someone asks for it. Again,
if anybody wants any other song TABbed, I'll be more than happy to contribute.

Questions? Comments? Or are you a pretty girl?





Comments


Popular Warfaze tabs & chords
Bose Achi Eka 1 Chords
Jotodure Chords
Mone Pore Chords
Bichinno Abeg Intro Tabs
Boshe Achi Intro Tabs
Jedin Tabs
Joto Dure Intro Tabs
Moharaj Intro Tabs
Somoy Tabs
Dhupchaya Ukulele


Song lyrics



↑ Back to top | Tablatures and chords are parodies/interpretations of the original songs. You may use it for private study, scholarship, research or language learning purposes only
© 2014 AZChords.com Contact us | Privacy policy | DMCA | Add/correct tabs | Request tabs | Top 50 tabs