» » »

Warfaze, Joto Dure Tabs (ver.1)

Artists:  A B C D E F G H I J K L M N O P Q R S T U V W X Y Z # 

Joto Dure Tabs (ver.1)

Warfaze Tabs
 Rating:
4/5 (4 votes)
Joto Dure lessons Tabs too difficult? Try these video lessons and learn fast
                (Intro)
         

joto dure                                                                             


    notes:                                                                            h> hammer
                                                                                  ^> pull up
e|--------------------------------------------------------------------|
B|--------------------8-10^10^-10-10-10-10-8h10-10-10---3h5-3---------|
G|-----4-----------/7-----------------------------------------5-4-----|
D|-2/5--5-4-5-7-5-------------------------------------------------7-5-|
A|--------------------------------------------------------------------|
E|--------------------------------------------------------------------|


e----------------------17~-15-17^h15-17--|
b----10~-8--10~-8-10/15------------------|
g-/7------/7-----------------------------| 17^h15 it means pull up 17 and then hammer it to 15
d----------------------------------------|
a----------------------------------------|
E----------------------------------------|


e----10-8-7----7-----10-8-7----7---------------|
b-----------10--------------10-----10^10^h8-10-|
g-7-7--7-7-7--7---7-7--7-7-7--7----------------|
d----------------------------------------------|
a----------------------------------------------|
E----------------------------------------------|

e--------------------|
b-3h5-3--------------|
g-------5-4----------|
d-----------7-5-7~-5-|
a--------------------|
E--------------------|

Here is the intro solo of joto dure by warfaze.
            
Submit corrections

comments powered by Disqus
↑ Back to top | Warfaze Tabs for Joto Dure. Lyrics for acoustic guitar and electric guitar. Tablatures and chords are parodies/interpretations of the original songs. You may use it for private study, scholarship, research or language learning purposes only