» » »

Warfaze, Jedin Tabs (ver.1)

Artists:  A B C D E F G H I J K L M N O P Q R S T U V W X Y Z # 

Jedin Tabs (ver.1)

Warfaze Tabs
 Rating:
4/5 (4 votes)
Jedin lessons Tabs too difficult? Try these video lessons and learn fast
1
                I am nobody professional.Just tried to share what I figured out.Best Regards_ Rupu

Intro (Piano)

E----------------------------------------------------------------------------------------|
A----------------------------------------------------------------------------------------|
D----------------------------------------------------------------------------------------|
G--------------10---9-----------------------------8----------------10-8-7-8-8s10-8s7--5--|
B---8-8---8----11---10---8-----6----6-6-6----6-------6-8-8s9---9-8-----------------------|
E---8-10--12------------------------6-6-10---11--------------8---------------------------|

E--------------------------------------------|
A--------------------------------------------|
D--------------------------------------------|
G-----------10---------12-10-8-7-8-8s10------|
B--8-8--8---11--9p11p9-----------------------|
E--8-10-12-----------------------------------|

E--------------------------------------------------------------------------|
A--------------------------------------------------------------------------|
D--------------------------------------------------------------------------|
G--10------------------------------8------------------8-7-8-8s10-8-7-5-----|
B---------------13-11--9-9p11p9-8-----6-8-8s9-9-8-6------------------------|
E------13-11-10------------------------------------------------------------|

Here comes the verse 1

B-5p6p5p6   C   Fm   A#   D#
Jedin  Khushir kanna vejabe ei chibuk
 G#   A#   C
Tomay nimontron, amar sathe katio kichukkhon
 C  Fm   A# D#
Jedin Hashir Jhotay vorbe amar buk
 G#   A#   C
Badhon hara sukh miliye debo voriye tomar mon
   A    D     A      D    A      D     C
Badhar oronne, sthobirotay kotokal kete jay, tobu je shopne chobi akaaaaa

 C     F      G      C       F      G
Ekhon mone amar ononto korun suur  theko bohudur dukher osru jhoruk amar(---not sure)
  C     F       G       G#        G         F        C
Ekhon jhore kapche amar ghor  , apon ki por hashle shokal abar hobe dekha


The rest goes on like this
            
Submit corrections

comments powered by Disqus
↑ Back to top | Warfaze Tabs for Jedin. Lyrics for acoustic guitar and electric guitar. 1 Tablatures and chords are parodies/interpretations of the original songs. You may use it for private study, scholarship, research or language learning purposes only