» » »

Warfaze, Boshe Achi Tabs (ver.1)

Artists:  A B C D E F G H I J K L M N O P Q R S T U V W X Y Z # 

Boshe Achi Tabs (ver.1)

Warfaze Tabs
 Rating:
4/5 (4 votes)
Boshe Achi lessons Tabs too difficult? Try these video lessons and learn fast
                (Intro)
        Boshe Achi  warfaze  INTRO          

e|-7h8h10h8h7-------------------------------|     
B|------------8-----------------------------|     
G|--------------7/5/4-5-4-------------------|     
D|------------------------5-4/2-------------|
A|------------------------------3-2~~-------|
E|------------------------------------3~----|


e.-----------------2---5--------------------|
B.-7p-5p-3p----3-5---3---3------------------|
G.-----------2------------------------------|
D.------------------------------------------|
A.------------------------------------------|
E.------------------------------------------|


e-----10-----8-----7-------------|
B---8------8-----8---8-------8~~-|
G-7------7-----7-------7---7-----|
D------------------------9-------|
A--------------------------------|
E--------------------------------|

e-------------------------------------------|
B----10----12----14----12----10---12---14~~-|
G-------------------------------------------|
D-12----12----12----12----12----12---12-----|
A-------------------------------------------|
E-------------------------------------------|

e-5h7h8-8h7h5-------5---7---8---7-----------|
B-------------8-7-5---5---5---5---5---------|
G-------------------------------------------|
D-------------------------------------------|
A-------------------------------------------|
E-------------------------------------------|

e-7h9h10-10h9h7-------7--9--10--9-----------|
B--------------10-9-7--7--7---7---7---------|
G-------------------------------------------|
D-------------------------------------------|
A-------------------------------------------|
E-------------------------------------------|



e-8h10h12-12h10h8---------8---10---12---10------------|
B-----------------12-10-8---8----8----8---8----8^888b-|
G-----------------------------------------------------|
D-----------------------------------------------------|
A-----------------------------------------------------|
E-----------------------------------------------------|
            
Submit corrections

comments powered by Disqus
↑ Back to top | Warfaze Tabs for Boshe Achi. Lyrics for acoustic guitar and electric guitar. Tablatures and chords are parodies/interpretations of the original songs. You may use it for private study, scholarship, research or language learning purposes only