>
 >
Un Mar De Estrellas

Un Mar De Estrellas Bass Tabs

Warcry - Un Mar De Estrellas chords, tabs, tablatures, lyrics

Guitar lessons | Add/correct | Request | Top 50 tabs Artists:  A B C D E F G H I J K L M N O P Q R S T U V W X Y Z 0-9

Un Mar De Estrellas Bass Tabs – Warcry

CD, Sheet music, Poster

Do you like Un Mar De Estrellas? Share with your friends now
Bass Tabs
Jardón

      W                   H.              H.              H.            
F#||-------------------|---------------|---------------|---------------|
C#||-------------------|---------------|---------------|---------------|
G#||-------------------|---------------|---------------|---------------|
D#||-------------------|---------------|---------------|---------------|


  H.              H.              H.              H.              H.            
---------------|---------------|---------------|---------------|---------------|
---------------|---------------|---------------|---------------|---------------|
---------------|---------------|---------------|---------------|---------------|
---------------|---------------|---------------|---------------|---------------|


  H.              H.              H.              H.              H.            
---------------|---------------|---------------|---------------|---------------|
---------------|---------------|---------------|---------------|---------------|
---------------|---------------|---------------|---------------|---------------|
---------------|---------------|---------------|---------------|---------------|


  H.              H.              H.              H.              H.            
---------------|---------------|---------------|---------------|---------------|
---------------|---------------|---------------|---------------|---------------|
---------------|---------------|---------------|--4------------|--2------------|
---------------|---------------|---------------|---------------|---------------|


  H.              Q.     Q.        H.              H.            
---------------|----------------|---------------|---------------|
---------------|--2------1------|---------------|---------------|
---------------|----------------|--4------------|--2------------|
--4------------|----------------|---------------|---------------|


  H.              H.              H.              H.              H.            
---------------|---------------|---------------|---------------|---------------|
--2------------|--1------------|---------------|---------------|--2------------|
---------------|---------------|--4------------|--2------------|---------------|
---------------|---------------|---------------|---------------|---------------|


  Q.     Q.        H.              H.              H.            
--2------1------|--2------------|---------------|---------------|
----------------|---------------|--4------------|---------------|
----------------|---------------|---------------|--0------------|
----------------|---------------|---------------|---------------|


  H.              H.              H.              H.            
---------------|---------------|---------------|---------------|
---------------|---------------|---------------|---------------|
---------------|--4------------|--2------------|--0------------|
--4------------|---------------|---------------|---------------|


  H        E  E     H.              H.              H.            
-----------------|---------------|---------------|---------------|
-----------------|---------------|---------------|---------------|
--2--------------|--4------------|--2------------|---------------|
-----------4--4--|---------------|---------------|--0------------|


  H        E  E     H.              H.              H.            
-----------------|---------------|---------------|---------------|
--1--------------|---------------|---------------|--2------------|
-----------------|--4------------|--2------------|---------------|
-----------4--4--|---------------|---------------|---------------|


  H        E  E     H.              H.              H.            
-----------------|---------------|---------------|---------------|
-----------------|---------------|---------------|---------------|
-----------------|--0------------|---------------|--0------------|
--4--------4--4--|---------------|--2------------|---------------|


  E  E  E  E  E  E       H        E  E     H.              H.            
---------------------|------------------|---------------|---------------|
---------------------|------------------|---------------|---------------|
---------------------|------------------|--4------------|--2------------|
--4--4--4--4--4--4/--|--16--------4--4--|---------------|---------------|


  H.              H        E  E     H.              H.            
---------------|-----------------|---------------|---------------|
---------------|-----------------|---------------|---------------|
---------------|-----------------|---------------|---------------|
--0------------|--2--------2--4--|--5------------|--7------------|


  H.              H        E  E     H.              H.            
---------------|-----------------|---------------|---------------|
---------------|-----------------|---------------|---------------|
--4------------|-----------------|--4------------|--2------------|
---------------|--4--------4--4--|---------------|---------------|


  H.              H        E  E     H.              H.            
---------------|-----------------|---------------|---------------|
---------------|-----------4-----|---------------|---------------|
---------------|-----------------|---------------|---------------|
--0------------|--2--------2--4--|--5------------|--7------------|


  H.              H        E  E     H.              H.            
---------------|-----------------|---------------|---------------|
---------------|-----------------|---------------|---------------|
--4------------|-----------------|---------------|--2------------|
---------------|--4--------4--4--|--5------------|---------------|


  E  E  E  E  E  E     E  E  E  S Q    S    H.              H.            
--------------------|--------------------|---------------|---------------|
--------------------|--------------------|---------------|---------------|
--4--4-----4--4-----|--4--4-----4-2----L-|--0------------|--2------------|
--------------------|--------------------|---------------|---------------|


  E  E  E  E  E  E     E  E  E  S Q    S    H.              H         
--------------------|--------------------|---------------|-----------|
--------------------|--------------------|---------------|-----------|
--4--4-----4--4-----|--4--4-----4-2----L-|--0------------|--0--------|
--------------------|--------------------|---------------|-----------|


  H           H.              H.              H.            
-----------|---------------|---------------|---------------|
-----------|---------------|---------------|---------------|
--2--------|--4------------|--0------------|---------------|
-----------|---------------|---------------|--2------------|


  E  E  E  E  E  E     Q.     Q.        H.              H.            
--------------------|----------------|---------------|---------------|
--------------------|----------------|---------------|---------------|
--------------------|----------------|--4------------|--2------------|
--4--4--4--4--4--4--|--4------4------|---------------|---------------|


  H.              H        E  E     H.              H.            
---------------|-----------------|---------------|---------------|
---------------|-----------------|---------------|---------------|
---------------|-----------------|--0------------|--2------------|
--0------------|--2--------2--4--|---------------|---------------|


  H.              H.              H.              H.              H.            
---------------|---------------|---------------|---------------|---------------|
---------------|---------------|---------------|---------------|--2------------|
--4------------|---------------|--4------------|--2------------|---------------|
---------------|--4------------|---------------|---------------|---------------|


  H        E  E     H.              H.              H.            
-----------------|---------------|---------------|---------------|
-----------------|---------------|---------------|---------------|
-----------------|---------------|---------------|--4------------|
--2--------2--4--|--5------------|--7------------|---------------|


  H        E  E     H.              H.              E  E  E  E  E  E   
-----------------|---------------|---------------|--------------------|
-----------------|---------------|---------------|--------------------|
-----------------|--0------------|--2------------|--4--4-----4--4-----|
--4--------2--4--|--5------------|---------------|--------------------|


  E  E  E  S Q    S    H.              H.              E  E  E  E  E  E   
--------------------|---------------|---------------|--------------------|
--------------------|---------------|---------------|--------------------|
--4--4-----4-2----L-|--0------------|--2------------|--4--4-----4--4-----|
--------------------|---------------|---------------|--------------------|


  E  E  E  S Q    S    H.              H.              H.            
--------------------|---------------|---------------|---------------|
--------------------|---------------|---------------|---------------|
--4--4-----4-2----L-|--0------------|--0------------|--2------------|
--------------------|---------------|---------------|---------------|


  H.              H.              H.              H        E  E   
---------------|---------------|---------------|-----------------|
---------------|---------------|---------------|-----------------|
--4------------|---------------|---------------|-----------------|
---------------|--2------------|--4------------|--4--------4--4--|


  H.              H.              H.              H        E  E   
---------------|---------------|---------------|-----------------|
---------------|---------------|---------------|-----------------|
--4------------|--2------------|---------------|-----------------|
---------------|---------------|--0------------|--2--------2--4--|


  H.              H.              H.              H        E  E   
---------------|---------------|---------------|-----------------|
---------------|---------------|---------------|-----------------|
---------------|---------------|--4------------|-----------------|
--5------------|--7------------|---------------|--4--------4--4--|


  H.              H.              E  E  E  E  E  E     H        E  E   
---------------|---------------|--------------------|-----------------|
---------------|---------------|--------------------|--4--------------|
--4------------|--2------------|--------------------|-----------------|
---------------|---------------|--0--0--0--0--0--0--|-----------2--4--|


  H.              H.              H.              H        E  E   
---------------|---------------|---------------|-----------------|
---------------|---------------|---------------|-----------------|
---------------|---------------|--4------------|-----------------|
--5------------|--7------------|---------------|--4--------4--4--|


  H.              H.              H.              H        E  E   
---------------|---------------|---------------|-----------------|
---------------|---------------|---------------|-----------------|
---------------|--2------------|--4------------|-----------------|
--5------------|---------------|---------------|--4--------2--4--|


  H.              H.              H.              H        E  E   
---------------|---------------|---------------|-----------------|
---------------|---------------|---------------|-----------------|
--0------------|--2------------|--4------------|-----------------|
---------------|---------------|---------------|--4--------2--4--|


  H.              H.              H.              H        E  E   
---------------|---------------|---------------|-----------------|
---------------|---------------|---------------|-----------------|
--0------------|--2------------|--4------------|-----------------|
---------------|---------------|---------------|--4--------4--4--|


  H.              Q    H           H.              H.            
---------------|----------------|---------------|---------------|
---------------|----------------|---------------|---------------|
---------------|--2-------------|---------------|---------------|
--2------------|----------------|---------------|---------------|


  H.              H.              H.              H.              H.            
---------------|---------------|---------------|---------------|---------------|
---------------|---------------|---------------|---------------|---------------|
---------------|---------------|---------------|---------------|---------------|
---------------|---------------|---------------|---------------|---------------|


  H.              H.              H.              H        E.     H.            
---------------|---------------|---------------|---------------|---------------|
---------------|---------------|---------------|---------------|---------------|
---------------|---------------|---------------|---------------|---------------|
---------------|---------------|---------------|---------------|---------------|


  H.             
---------------||
---------------||
---------------||
---------------||




Duration Legend
---------------
W - whole
H - half
Q - quarter
E - 8th
S - 16th
T - 32nd
X - 64th
. - note dotted
|-n-|  - n-tuplets


Tablature Legend
----------------
L - tied note
x - dead note
g - grace note
(n) - ghost note
> - accentuded note
NH - natural harmonic
AH - artificial harmonic
TH - tapped harmonic
SH - semi harmonic
PH - pitch harmonic
h - hammer on
p - pull off
b - bend
br - bendRelease
pb - preBend
pbr - preBendRelease
brb - bendReleaseBend
\n/ - tremolo bar dip
\n - tremolo bar dive
-/n - tremolo bar Release up
/n\ - tremolo bar inverted dip
/n - tremolo bar return
-\n - tremolo bar Release down
S - shift slide
s - legato slide
/ -  slide into from below or out of upwards
\ -  slide into from above or out of downwards
~ - vibrato
W - wide vibrato
tr - trill
TP - tremolo picking
T - tapping
S - slap
P - pop
< - fade in
^ - brush up
v - brush down





Comments


Popular Warcry tabs & chords
Alejandro Bass Tabs
Contra El Viento Bass Tabs
En Un Lugar Sin Dios Bass Tabs
Trono Del Metal Bass Tabs
Capitan Lawrence Chords
Devorando El Corazon Tabs
El Mas Triste Adios Tabs
Hijo De La Ira Tabs
Nada Como Tu Intro Tabs
Un Lugar Sin Dios Ukulele


Song lyrics



↑ Back to top | Tablatures and chords are parodies/interpretations of the original songs. You may use it for private study, scholarship, research or language learning purposes only
© 2014 AZChords.com Contact us | Privacy policy | DMCA | Add/correct tabs | Request tabs | Top 50 tabs