» » »

Recuerdalo Tabs (ver.1)

Artists:  A B C D E F G H I J K L M N O P Q R S T U V W X Y Z # 

Recuerdalo Tabs (ver.1)

Warcry
Rating:
0/5 (0 votes)

Hard to play? Try these video lessons and learn fast.
                       WARCRY - Recuerdalo


e:-------------------------------------------------------------------------------------------|
b:------------------7--7p8-7----------------7--7p8-7-----------------------------------------|
g:--/7--7-9-7----9------------9--7-------9------------9--7-----------------------------------|
D:----------------------------------9-----------------------9--7--5--9--7------7p9h7--5-5----|
A:-------------------------------------------------------------------------------------------|
E:-------------------------------------------------------------------------------------------|



e:--------------------------------|
b:--------------------------------|
g:--------------------------------|
D:--/5-4--------------------------|
A:--------7-7---5p7h5-------------|
E:---------------------8-7--------|






VERSO I


G                  Dm                    C                              G
Maldita guerra       Trampa mortal        No veo el dia en que pueda regresar

G                  Dm                         C                                   G
Te Echo de menos    Tanto mi amor         Que hasta en este frio intenso me das calor




e:---------------------------------------------------------------------------|
b:---------------------------------------------------------------------------|
g:---------3/5-5-5--x-x------------------------------3/5-5-5--x-x-7----/3----|
D:--3--x-x-3/5-5-5--x-x-5--x-x-5--x-5--x-x-x-3---x-x-3/5-5-5--x-x-7----/3----|
A:--3--x-x-1/3-3-3--x-x-5--x-x-5--x-5--x-x-x-3---x-x-1/3-3-3--x-x-5----/1----|
E:--1--x-x--------------3--x-x-3--x-3--x-x-x-1---x-x-------------------------|



CORO

e:----------------------------------------------------------------------------------|
b:----------------------------------------------------------------------------------|
g:-------------7---5-------5-------7----------------7---5-------5-------7----5------|
D:---------5---7---5---5---5---5---7------------5---7---5---5---5---5---7----5------|
A:--7-5----5---5---3---5---3---5---5------------5---5---3---5---3---5---5----3------|
E:------8--3-----------3-------3----------------3-----------3-------3---------------|



Solo

El solo es en base a estos acordes, perdon por no poner el solo pero no lo tengo completo!

e:------------------------|
b:------------------------|
g:------7---5---3---5-----|
D:--5---7---5---3---5-----|     X 2
A:--5---5---3---1---3-----|
E:--3---------------------|



e:-----------------------------------|
b:-----------------------------------|
g:---------7---5-------5-------7-----|
D:-----5---7---5---5---5---5---7-----|     X 4
A:-----5---5---3---5---3---5---5-----|
E:-----3-----------3-------3---------|



Outro


e:-----------------------------------------------------------------------------------------|
b:----5--7--8--7------8--10---/13--12---10---8--8-----5--7--8-----5--7--8-----7-----/8-----|
g:-----------------------------------------------------------------------------------------|
D:-----------------------------------------------------------------------------------------|
A:-----------------------------------------------------------------------------------------|
E:-----------------------------------------------------------------------------------------|


BY DarkJoker-233
            
Hard to play? Try these video lessons and learn fast. | Correct




comments powered by Disqus
↑ Back to top | Tablatures and chords are parodies/interpretations of the original songs. You may use it for private study, scholarship, research or language learning purposes only