>
 >
Hoy Gano Yo

Hoy Gano Yo Bass Tabs

Warcry - Hoy Gano Yo chords, tabs, tablatures, lyrics

Guitar lessons | Add/correct | Request | Top 50 tabs Artists:  A B C D E F G H I J K L M N O P Q R S T U V W X Y Z 0-9

Hoy Gano Yo Bass Tabs – Warcry

CD, Sheet music, Poster

Do you like Hoy Gano Yo? Share with your friends now
Bass Tabs
                                  Hoy Gano Yo                                   

                                                                          WarCry
Bass



      W                   W                   W                 
F#||-------------------|-------------------|-------------------|
C#||-------------------|-------------------|-------------------|
G#||-------------------|-------------------|-------------------|
D#||-------------------|--7----------------|--L----------------|


  W                   W                   W                   W                 
-------------------|-------------------|-------------------|-------------------|
-------------------|-------------------|-------------------|-------------------|
-------------------|-------------------|--5----------------|--L----------------|
--3----------------|--L----------------|-------------------|-------------------|


  W                   Q    Q    Q    Q       W                 
-------------------|----------------------|-------------------|
-------------------|----------------------|-------------------|
-------------------|--4----5----4---------|-------------------|
--5----------------|-----------------5----|--7----------------|


  W                   W                   W                   W                 
-------------------|-------------------|-------------------|-------------------|
-------------------|-------------------|-------------------|-------------------|
-------------------|-------------------|-------------------|--5----------------|
--L----------------|--3----------------|--L----------------|-------------------|


  W                   W                   Q    Q    Q    Q     
-------------------|-------------------|----------------------|
-------------------|-------------------|----------------------|
--L----------------|-------------------|--4----5----4---------|
-------------------|--5----------------|-----------------5----|


  S S S S S S S S S S S S S S S S    S S S S S S S S S S S S S S S S  
----------------------------------|----------------------------------|
----------------------------------|----------------------------------|
----------------------------------|----------------------------------|
--7-7-7-7-7-7-7-7-7-7-7-7-7-7-7-7-|--7-7-7-7-7-7-7-7-7-7-7-7-7-7-7-7-|


  S S S S S S S S S S S S S S S S    S S S S S S S S S S S S S S S S  
----------------------------------|----------------------------------|
----------------------------------|----------------------------------|
----------------------------------|----------------------------------|
--3-3-3-3-3-3-3-3-3-3-3-3-3-3-3-3-|--3-3-3-3-3-3-3-3-3-3-3-3-3-3-3-3-|


  S S S S S S S S S S S S S S S S    S S S S S S S S S S S S S S S S  
----------------------------------|----------------------------------|
----------------------------------|----------------------------------|
--5-5-5-5-5-5-5-5-5-5-5-5-5-5-5-5-|--5-5-5-5-5-5-5-5-5-5-5-5-5-5-5-5-|
----------------------------------|----------------------------------|


  S S S S S S S S S S S S S S S S    Q    Q    Q    Q     
----------------------------------|----------------------|
----------------------------------|----------------------|
----------------------------------|--4----5----4---------|
--5-5-5-5-5-5-5-5-5-5-5-5-5-5-5-5-|-----------------5----|


  S S S S S S S S S S S S S S S S    S S S S S S S S S S S S S S S S  
----------------------------------|----------------------------------|
----------------------------------|----------------------------------|
----------------------------------|----------------------------------|
--7-7-7-7-7-7-7-7-7-7-7-7-7-7-7-7-|--7-7-7-7-7-7-7-7-7-7-7-7-7-7-7-7-|


  S S S S S S S S S S S S S S S S    S S S S S S S S S S S S S S S S  
----------------------------------|----------------------------------|
----------------------------------|----------------------------------|
----------------------------------|----------------------------------|
--3-3-3-3-3-3-3-3-3-3-3-3-3-3-3-3-|--3-3-3-3-3-3-3-3-3-3-3-3-3-3-3-3-|


  S S S S S S S S S S S S S S S S    S S S S S S S S S S S S S S S S  
----------------------------------|----------------------------------|
----------------------------------|----------------------------------|
--5-5-5-5-5-5-5-5-5-5-5-5-5-5-5-5-|--5-5-5-5-5-5-5-5-5-5-5-5-5-5-5-5-|
----------------------------------|----------------------------------|


  S S S S S S S S S S S S S S S S    Q    Q    Q    Q     
----------------------------------|----------------------|
----------------------------------|----------------------|
----------------------------------|--4----5----4---------|
--5-5-5-5-5-5-5-5-5-5-5-5-5-5-5-5-|-----------------5----|


    S S S S S S S S S S S S S S S S    S S S S S S S S S S S S S S S S  
|-----------------------------------|----------------------------------|
|*----------------------------------|----------------------------------|
|*----------------------------------|----------------------------------|
|---7-7-7-7-7-7-7-7-7-7-7-7-7-7-7-7-|--7-7-7-7-7-7-7-7-7-7-7-7-7-7-7-7-|


  S S S S S S S S S S S S S S S S    S S S S S S S S S S S S S S S S  
----------------------------------|----------------------------------|
----------------------------------|----------------------------------|
----------------------------------|----------------------------------|
--5-5-5-5-5-5-5-5-5-5-5-5-5-5-5-5-|--5-5-5-5-5-5-5-5-5-5-5-5-5-5-5-5-|


  S S S S S S S S S S S S S S S S    S S S S S S S S S S S S S S S S  
----------------------------------|----------------------------------|
----------------------------------|----------------------------------|
--5-5-5-5-5-5-5-5-5-5-5-5-5-5-5-5-|--5-5-5-5-5-5-5-5-5-5-5-5-5-5-5-5-|
----------------------------------|----------------------------------|


  H.           Q       H        H              S S S S S S S S S S S S S S S S  
--------------------|---------------------||-----------------------------------|
--------------------|--------------------*||*----------------------------------|
--------------------|--------------------*||*----------------------------------|
--3------------3----|--0--------2---------||---5-5-5-5-5-5-5-5-5-5-5-5-5-5-5-5-|


  S S S S S S S S S S S S S S S S    S S S S S S S S S S S S S S S S  
----------------------------------|----------------------------------|
----------------------------------|----------------------------------|
----------------------------------|----------------------------------|
--5-5-5-5-5-5-5-5-5-5-5-5-5-5-5-5-|--7-7-7-7-7-7-7-7-7-7-7-7-7-7-7-7-|


  S S S S S S S S S S S S S S S S      Q.     S S E  S E.  E   
-----------------------------------||-------------------------|
----------------------------------*||-------------------------|
----------------------------------*||-------------------------|
--7-7-7-7-7-7-7-7-7-7-7-7-7-7-7-7--||--3------3-3-3--L-3---5--|


  Q.     S S E  S  E.  E     W                   H        H         
--------------------------|-------------------|--------------------|
--------------------------|-------------------|--------------------|
--------------------------|-------------------|--5-----------------|
--7------7-7-7--L-10---9--|--5----------------|-----------5--------|


  Q.     S S E  S E.  E     Q.     S S E  S  E.  E     E  E  E  E  E  E  E  E   
-------------------------|--------------------------|--------------------------|
-------------------------|--------------------------|--------------------------|
-------------------------|--------------------------|--------------------------|
--3------3-3-3--L-3---5--|--7------7-7-7--L-10---9--|--5--5--5--5--5--5--5--5--|


  E  E  E  E  E  E  E  E     Q.     S S E  S E.  E     Q.     S S E  S  E.  E   
--------------------------|-------------------------|--------------------------|
--------------------------|-------------------------|--------------------------|
--5--5--5--5--------------|-------------------------|--------------------------|
--------------5--5--5--5--|--3------3-3-3--L-3---5--|--7------7-7-7--L-10---9--|


  W                   H        H           Q.     S S E  S E.  E   
-------------------|--------------------|-------------------------|
-------------------|--------------------|-------------------------|
-------------------|--5-----------------|-------------------------|
--5----------------|-----------5--------|--3------3-3-3--L-3---5--|


  Q.     S S E  S  E.  E       S S S S S S S S S S S S S S S S  
--------------------------||-----------------------------------|
--------------------------||*----------------------------------|
--------------------------||*----------------------------------|
--7------7-7-7--L-10---9--||---7-7-7-7-7-7-7-7-7-7-7-7-7-7-7-7-|


  S S S S S S S S S S S S S S S S    S S S S S S S S S S S S S S S S  
----------------------------------|----------------------------------|
----------------------------------|----------------------------------|
----------------------------------|----------------------------------|
--7-7-7-7-7-7-7-7-7-7-7-7-7-7-7-7-|--5-5-5-5-5-5-5-5-5-5-5-5-5-5-5-5-|


  S S S S S S S S S S S S S S S S    S S S S S S S S S S S S S S S S  
----------------------------------|----------------------------------|
----------------------------------|----------------------------------|
----------------------------------|--5-5-5-5-5-5-5-5-5-5-5-5-5-5-5-5-|
--5-5-5-5-5-5-5-5-5-5-5-5-5-5-5-5-|----------------------------------|


  S S S S S S S S S S S S S S S S    H.           Q       H        H           
----------------------------------|--------------------|---------------------||
----------------------------------|--------------------|--------------------*||
--5-5-5-5-5-5-5-5-5-5-5-5-5-5-5-5-|--------------------|--------------------*||
----------------------------------|--3------------3----|--0--------2---------||


   S S S S S S S S S S S S S S S S    S S S S S S S S S S S S S S S S  
-----------------------------------|----------------------------------|
*----------------------------------|----------------------------------|
*----------------------------------|----------------------------------|
---5-5-5-5-5-5-5-5-5-5-5-5-5-5-5-5-|--5-5-5-5-5-5-5-5-5-5-5-5-5-5-5-5-|


  S S S S S S S S S S S S S S S S    S S S S S S S S S S S S S S S S    
----------------------------------|-----------------------------------||
----------------------------------|----------------------------------*||
----------------------------------|----------------------------------*||
--7-7-7-7-7-7-7-7-7-7-7-7-7-7-7-7-|--7-7-7-7-7-7-7-7-7-7-7-7-7-7-7-7--||


  Q.     S S E  S E.  E     Q.     S S E  S  E.  E     W                 
-------------------------|--------------------------|-------------------|
-------------------------|--------------------------|-------------------|
-------------------------|--------------------------|-------------------|
--3------3-3-3--L-3---5--|--7------7-7-7--L-10---9--|--5----------------|


  H        H           Q.     S S E  S E.  E     Q.     S S E  S  E.  E   
--------------------|-------------------------|--------------------------|
--------------------|-------------------------|--------------------------|
--5-----------------|-------------------------|--------------------------|
-----------5--------|--3------3-3-3--L-3---5--|--7------7-7-7--L-10---9--|


  E  E  E  E  E  E  E  E     E  E  E  E  E  E  E  E     Q.     S S E  S E.  E   
--------------------------|--------------------------|-------------------------|
--------------------------|--------------------------|-------------------------|
--------------------------|--5--5--5--5--------------|-------------------------|
--5--5--5--5--5--5--5--5--|--------------5--5--5--5--|--3------3-3-3--L-3---5--|


  Q.     S S E  S  E.  E     W                   H        H         
--------------------------|-------------------|--------------------|
--------------------------|-------------------|--------------------|
--------------------------|-------------------|--5-----------------|
--7------7-7-7--L-10---9--|--5----------------|-----------5--------|


  Q.     S S E  S E.  E     Q.     S S E  S  E.  E   
-------------------------|--------------------------|
-------------------------|--------------------------|
-------------------------|--------------------------|
--3------3-3-3--L-3---5--|--7------7-7-7--L-10---9--|


    S S S S S S S S S S S S S S S S    S S S S S S S S S S S S S S S S  
|-----------------------------------|----------------------------------|
|*----------------------------------|----------------------------------|
|*----------------------------------|----------------------------------|
|---7-7-7-7-7-7-7-7-7-7-7-7-7-7-7-7-|--7-7-7-7-7-7-7-7-7-7-7-7-7-7-7-7-|


  S S S S S S S S S S S S S S S S    S S S S S S S S S S S S S S S S  
----------------------------------|----------------------------------|
----------------------------------|----------------------------------|
----------------------------------|----------------------------------|
--3-3-3-3-3-3-3-3-3-3-3-3-3-3-3-3-|--3-3-3-3-3-3-3-3-3-3-3-3-3-3-3-3-|


  S S S S S S S S S S S S S S S S    S S S S S S S S S S S S S S S S  
----------------------------------|----------------------------------|
----------------------------------|----------------------------------|
--5-5-5-5-5-5-5-5-5-5-5-5-5-5-5-5-|--5-5-5-5-5-5-5-5-5-5-5-5-5-5-5-5-|
----------------------------------|----------------------------------|


  S S S S S S S S S S S S S S S S    S S S S S S S S S S S S S S S S    
----------------------------------|-----------------------------------||
----------------------------------|----------------------------------*||
----------------------------------|----------------------------------*||
--5-5-5-5-5-5-5-5-5-5-5-5-5-5-5-5-|--5-5-5-5-5-5-5-5-5-5-5-5-5-5-5-5--||


  Q.     S S E  S E.  E     Q.     S S E  S  E.  E   
-------------------------|--------------------------|
-------------------------|--------------------------|
-------------------------|--------------------------|
--3------3-3-3--L-3---5--|--7------7-7-7--L-10---9--|


    S S S S S S S S S S S S S S S S    S S S S S S S S S S S S S S S S  
|-----------------------------------|----------------------------------|
|*----------------------------------|----------------------------------|
|*----------------------------------|----------------------------------|
|---7-7-7-7-7-7-7-7-7-7-7-7-7-7-7-7-|--7-7-7-7-7-7-7-7-7-7-7-7-7-7-7-7-|


  S S S S S S S S S S S S S S S S    S S S S S S S S S S S S S S S S  
----------------------------------|----------------------------------|
----------------------------------|----------------------------------|
--5-5-5-5-5-5-5-5-5-5-5-5-5-5-5-5-|--5-5-5-5-5-5-5-5-5-5-5-5-5-5-5-5-|
----------------------------------|----------------------------------|


  S S S S S S S S S S S S S S S S    S S S S S S S S S S S S S S S S  
----------------------------------|----------------------------------|
----------------------------------|----------------------------------|
----------------------------------|----------------------------------|
--3-3-3-3-3-3-3-3-3-3-3-3-3-3-3-3-|--3-3-3-3-3-3-3-3-3-3-3-3-3-3-3-3-|


  S S S S S S S S S S S S S S S S    S S S S S S S S S S S S S S S S    
----------------------------------|-----------------------------------||
----------------------------------|----------------------------------*||
--5-5-5-5-5-5-5-5-5-5-5-5-5-5-5-5-|--5-5-5-5-5-5-5-5-5-5-5-5-5-5-5-5-*||
----------------------------------|-----------------------------------||


  S S S S S S S S S S S S S S S S    S S S S S S S S S S S S S S S S  
----------------------------------|----------------------------------|
----------------------------------|----------------------------------|
----------------------------------|----------------------------------|
--2-2-2-2-2-2-2-2-2-2-2-2-2-2-2-2-|--3-3-3-3-3-3-3-3-3-3-3-3-3-3-3-3-|


  S S S S S S S S S S S S S S S S    S S S S S S S S S S S S S S S S  
----------------------------------|----------------------------------|
----------------------------------|----------------------------------|
--5-5-5-5-5-5-5-5-5-5-5-5-5-5-5-5-|----------------------------------|
----------------------------------|--5-5-5-5-5-5-5-5-5-5-5-5-5-5-5-5-|


  S S S S S S S S S S S S S S S S    S S S S S S S S S S S S S S S S  
----------------------------------|----------------------------------|
----------------------------------|----------------------------------|
----------------------------------|----------------------------------|
--2-2-2-2-2-2-2-2-2-2-2-2-2-2-2-2-|--3-3-3-3-3-3-3-3-3-3-3-3-3-3-3-3-|


  S S S S S S S S S S S S S S S S    S S S S S S S S S S S S S S S S  
----------------------------------|----------------------------------|
----------------------------------|----------------------------------|
--5-5-5-5-5-5-5-5-----------------|--5-5-5-5-5-5-5-5-----------------|
------------------5-5-5-5-5-5-5-5-|------------------5-5-5-5-5-5-5-5-|


  S S S S S S S S S S S S S S S S    S S S S S S S S S S S S S S S S  
----------------------------------|----------------------------------|
----------------------------------|----------------------------------|
----------------------------------|----------------------------------|
--2-2-2-2-2-2-2-2-2-2-2-2-2-2-2-2-|--3-3-3-3-3-3-3-3-3-3-3-3-3-3-3-3-|


  S S S S S S S S S S S S S S S S    S S S S S S S S S S S S S S S S  
----------------------------------|----------------------------------|
----------------------------------|----------------------------------|
--5-5-5-5-5-5-5-5-5-5-5-5-5-5-5-5-|----------------------------------|
----------------------------------|--5-5-5-5-5-5-5-5-5-5-5-5-5-5-5-5-|


  S S S S S S S S S S S S S S S S    S S S S S S S S S S S S S S S S  
----------------------------------|----------------------------------|
----------------------------------|----------------------------------|
----------------------------------|----------------------------------|
--2-2-2-2-2-2-2-2-2-2-2-2-2-2-2-2-|--3-3-3-3-3-3-3-3-3-3-3-3-3-3-3-3-|


  S S S S S S S S S S S S S S S S    S S S S S S S S S S S S S S S S  
----------------------------------|----------------------------------|
----------------------------------|----------------------------------|
----------------------------------|----------------------------------|
--5-5-5-5-5-5-5-5-5-5-5-5-5-5-5-5-|--5-5-5-5-5-5-5-5-5-5-5-5-5-5-5-5-|


  S S S S S S S S S S S S S S S S    S S S S S S S S S S S S S S S S  
----------------------------------|----------------------------------|
----------------------------------|----------------------------------|
----------------------------------|----------------------------------|
--5-5-5-5-5-5-5-5-5-5-5-5-5-5-5-5-|--5-5-5-5-5-5-5-5-5-5-5-5-5-5-5-5-|


  Q.     S S E  S E.  E     Q.     S S E  S  E.  E     W                 
-------------------------|--------------------------|-------------------|
-------------------------|--------------------------|-------------------|
-------------------------|--------------------------|-------------------|
--3------3-3-3--L-3---5--|--7------7-7-7--L-10---9--|--5----------------|


  H        H           Q.     S S E  S E.  E     Q.     S S E  S  E.  E   
--------------------|-------------------------|--------------------------|
--------------------|-------------------------|--------------------------|
--5-----------------|-------------------------|--------------------------|
-----------5--------|--3------3-3-3--L-3---5--|--7------7-7-7--L-10---9--|


    S S S S S S S S S S S S S S S S    S S S S S S S S S S S S S S S S  
|-----------------------------------|----------------------------------|
|*----------------------------------|----------------------------------|
|*----------------------------------|----------------------------------|
|---7-7-7-7-7-7-7-7-7-7-7-7-7-7-7-7-|--7-7-7-7-7-7-7-7-7-7-7-7-7-7-7-7-|


  S S S S S S S S S S S S S S S S    S S S S S S S S S S S S S S S S  
----------------------------------|----------------------------------|
----------------------------------|----------------------------------|
----------------------------------|----------------------------------|
--3-3-3-3-3-3-3-3-3-3-3-3-3-3-3-3-|--3-3-3-3-3-3-3-3-3-3-3-3-3-3-3-3-|


  S S S S S S S S S S S S S S S S    S S S S S S S S S S S S S S S S  
----------------------------------|----------------------------------|
----------------------------------|----------------------------------|
--5-5-5-5-5-5-5-5-5-5-5-5-5-5-5-5-|--5-5-5-5-5-5-5-5-5-5-5-5-5-5-5-5-|
----------------------------------|----------------------------------|


  S S S S S S S S S S S S S S S S    S S S S S S S S S S S S S S S S  4x
----------------------------------|-----------------------------------||
----------------------------------|----------------------------------*||
----------------------------------|----------------------------------*||
--5-5-5-5-5-5-5-5-5-5-5-5-5-5-5-5-|--5-5-5-5-5-5-5-5-5-5-5-5-5-5-5-5--||


   S S S S S S S S S S S S S S S S    S S S S S S S S S S S S S S S S  
-----------------------------------|----------------------------------|
*----------------------------------|----------------------------------|
*----------------------------------|----------------------------------|
---7-7-7-7-7-7-7-7-7-7-7-7-7-7-7-7-|--7-7-7-7-7-7-7-7-7-7-7-7-7-7-7-7-|


  S S S S S S S S S S S S S S S S    S S S S S S S S S S S S S S S S  
----------------------------------|----------------------------------|
----------------------------------|----------------------------------|
----------------------------------|----------------------------------|
--3-3-3-3-3-3-3-3-3-3-3-3-3-3-3-3-|--3-3-3-3-3-3-3-3-3-3-3-3-3-3-3-3-|


  S S S S S S S S S S S S S S S S    S S S S S S S S S S S S S S S S  
----------------------------------|----------------------------------|
----------------------------------|----------------------------------|
--5-5-5-5-5-5-5-5-5-5-5-5-5-5-5-5-|--5-5-5-5-5-5-5-5-5-5-5-5-5-5-5-5-|
----------------------------------|----------------------------------|


  S S S S S S S S S S S S S S S S    S S S S S S S S S S S S S S S S  3x
----------------------------------|-----------------------------------||
----------------------------------|----------------------------------*||
----------------------------------|----------------------------------*||
--5-5-5-5-5-5-5-5-5-5-5-5-5-5-5-5-|--5-5-5-5-5-5-5-5-5-5-5-5-5-5-5-5--||


  S S S S S S S S S S S S S S S S    S S S S S S S S S S S S S S S S  
----------------------------------|----------------------------------|
----------------------------------|----------------------------------|
----------------------------------|----------------------------------|
--7-7-7-7-7-7-7-7-7-7-7-7-7-7-7-7-|--7-7-7-7-7-7-7-7-7-7-7-7-7-7-7-7-|


  S S S S S S S S S S S S S S S S    S S S S S S S S S S S S S S S S  
----------------------------------|----------------------------------|
----------------------------------|----------------------------------|
----------------------------------|----------------------------------|
--3-3-3-3-3-3-3-3-3-3-3-3-3-3-3-3-|--3-3-3-3-3-3-3-3-3-3-3-3-3-3-3-3-|


  S S S S S S S S S S S S S S S S    S S S S S S S S S S S S S S S S  
----------------------------------|----------------------------------|
----------------------------------|----------------------------------|
--5-5-5-5-5-5-5-5-5-5-5-5-5-5-5-5-|--5-5-5-5-5-5-5-5-5-5-5-5-5-5-5-5-|
----------------------------------|----------------------------------|


  S S S S S S S S S S S S S S S S    S S S S S S S S S S S S S S S S  
----------------------------------|----------------------------------|
----------------------------------|----------------------------------|
----------------------------------|----------------------------------|
--5-5-5-5-5-5-5-5-5-5-5-5-5-5-5-5-|--5-5-5-5-5-5-5-5-5-5-5-5-5-5-5-5-|


  W                   W                   E  H          
-------------------|-------------------|--------------||
-------------------|-------------------|--------------||
-------------------|-------------------|--------------||
--7----------------|--L----------------|--7-----------||




Duration Legend
---------------
W - whole
H - half
Q - quarter
E - 8th
S - 16th
T - 32nd
X - 64th
. - note dotted
|-n-|  - n-tuplets


Tablature Legend
----------------
L - tied note
x - dead note
g - grace note
(n) - ghost note
> - accentuded note
NH - natural harmonic
AH - artificial harmonic
TH - tapped harmonic
SH - semi harmonic
PH - pitch harmonic
h - hammer on
p - pull off
b - bend
br - bendRelease
pb - preBend
pbr - preBendRelease
brb - bendReleaseBend
\n/ - tremolo bar dip
\n - tremolo bar dive
-/n - tremolo bar Release up
/n\ - tremolo bar inverted dip
/n - tremolo bar return
-\n - tremolo bar Release down
S - shift slide
s - legato slide
/ -  slide into from below or out of upwards
\ -  slide into from above or out of downwards
~ - vibrato
W - wide vibrato
tr - trill
TP - tremolo picking
T - tapping
S - slap
P - pop
< - fade in
^ - brush up
v - brush down





Comments


Popular Warcry tabs & chords
Alejandro Bass Tabs
Trono Del Metal Bass Tabs
El Guardian De Troya Intro Tabs
El Mas Triste Adios Tabs
El Mas Triste Adios Intro Tabs
En Un Lugar Sin Dios Tabs
Hijo De La Ira Tabs
Nada Como Tu Intro Tabs
El Mas Triste Adios Ukulele
Un Lugar Sin Dios Ukulele


Song lyrics



↑ Back to top | Tablatures and chords are parodies/interpretations of the original songs. You may use it for private study, scholarship, research or language learning purposes only
© 2014 AZChords.com Contact us | Privacy policy | DMCA | Add/correct tabs | Request tabs | Top 50 tabs