» » »

Warcry, Hijo De La Ira Tabs (ver.1)

Artists:  A B C D E F G H I J K L M N O P Q R S T U V W X Y Z # 

Hijo De La Ira Tabs (ver.1)

Warcry Tabs
 Rating:
4/5 (4 votes)
Hijo De La Ira lessons Tabs too difficult? Try these video lessons and learn fast
                -------------------------------------------------------------------------------
-------------------------------------------------------------------------------

Tuning: half step down

I saw this guys playing this song a year ago at the Mago de Oz Fest, it was amazing. The 
power/heavy metal. Yeah!!

Intro.
eb|---------------------------------------------------------------------------|
Bb|---------------------------------------------------------------------------|
Gb|---------------------------------------------------------------------------|
Db|--------------------------------------------------------t------------------|
Ab|-5h7---8p7-------5h7---8p7--5h7--5h7---8p7-------5h7h8h10p8p7p5------------|
Eb|-----0-----0-1p0-----0----0----------0-----0-1p0---------------8p7p5-------|
        .     .         .    .          .     .

Verse
eb|---------------------------------------------------------------------------|
Bb|---------------------------------------------------------------------------|
Gb|---------------------------------------------------------------------------|
Db|---------------------------------------------------------------------------|
Ab|----------------------------3----------------------------------------------|
Eb|-000-00-000000-000-00-00000-1----------------------------------------------|
   ..........................        listen to get the rythm


Pre-chorus
eb|---------------------------------------------------------------------------|
Bb|---------------------------------------------------------------------------|
Gb|---------------------------------------------------------------------------|
Db|-7--5--3--2--7--5--3--2--5--7-----------------2222-------------------------|
Ab|-5--3--1--0--5--3--1--0--3--5-----------------0000-------------------------|
Eb|-------------------------------0000000000000-------------------------------|
                                  .............

Chorus
eb|---------------------------------------------------------------------------|
Bb|---------------------------------------------------------------------------|
Gb|---------------------------------------------------------------------------|
Db|-7777-5555-3333-2222---------------2222------------------------------------|
Ab|-5555-3333-1111-0000---------------0000------------------------------------|
Eb|---------------------0000000000000-----------------------------------------|
                        .............
listen to get the rythm, thats not the exact number of notes and theres a bunch of muted 
after the chorus


Break - Pre solo. This is played before and during the first solo
eb|---------------------------------------------------------------------------|
Bb|---------------------------------------------------------------------------|
Gb|---------------------------------------------------------------------------|
Db|---------------------------------------------------------------------------|
Ab|---------------------------------------------------------------------------|
Eb|-1p0-2p0-1p0-0000000000000-------------------------------------------------|
                .............

The backing guitar in the second solo is the same in the chorus


Fell free to tab the solos cause i cant ;)


After solo
eb|---------------------------------------------------------------------------|
Bb|---------------------------------------------------------------------------|
Gb|---------------------------------------------------------------------------|
Db|---------------------------------------------------------------------------|
Ab|-22-22-22-22-222222-22-22-222222-22-22-222222-22-22-2222-------------------|
Eb|-00-00-00-00-000000-00-00-000000-00-00-000000-00-00-0000-------------------|
    .......................................................

eb|-----------------------------------------------------------------------------|
Bb|-----------------------------------------------------------------------------|
Gb|-----------------------------------------------------------------------------|
Db|-----3------3------3---3---3-------------------------------------------------|
Ab|----/-\----/-\----/-\-/-\-/-\------------------------------------------------|
Eb|-00-000-00-000-00-000-000-000------------------------------------------------|
    ............................


The outro is the same as the intro


Im sure there are some mistakes but i dont know


| /  slide up
| \  slide down
| h  hammer-on
| p  pull-off
| ~  vibrato
| +  harmonic
| .  Mute note
|  3
| /-\ Triplets
| t   tapped note
===============================================================================
            
Submit corrections

comments powered by Disqus
↑ Back to top | Warcry Tabs for Hijo De La Ira. Lyrics for acoustic guitar and electric guitar. Tablatures and chords are parodies/interpretations of the original songs. You may use it for private study, scholarship, research or language learning purposes only