» » »

El Mas Triste Adios Tabs (ver.2)

Artists:  A B C D E F G H I J K L M N O P Q R S T U V W X Y Z # 

El Mas Triste Adios Tabs (ver.2)

Warcry
Rating:
0/5 (0 votes)

Tabs too difficult? Try these video lessons and learn fast.
                      H          Q.       S  S     Q       Q.        E   E   E   
E||----------------------------|--------------------------------|
B||--15---------15-------------|----------------------------15--|
G||--14b--------14b------14-12-|--14s----(16)~----------12------|
D||----------------------------|--------------------14----------|
A||----------------------------|--------------------------------|
E||----------------------------|--------------------------------|


                       PH                       PH    PH                  
   Q      E   E  E     Q       E      E   E     E     Q       E   E   E   
----------------------------------|--------------------------------------|
--15b----15--12-----<>12br----10--|--------------------------------------|
----------------------------------|--12--11--<>12---<>Lbr----11----------|
----------------------------------|------------------------------12------|
----------------------------------|----------------------------------14--|
----------------------------------|--------------------------------------|


   H.             E    E      E  E  H        E  E     H         E  E.  E.   
--------------------------|------------------------|-----------------------|
--------------------------|------------------------|-----------------------|
-----------------12s--11--|--11--7-----------------|--9~--------L--5---7---|
--14~---------------------|---------9--------7--9--|-----------------------|
--------------------------|------------------------|-----------------------|
--------------------------|------------------------|-----------------------|


  PM PM PM PM PM PM PM PM PM PM PM PM       PM                    
  |--3--|  |--3--|  |--3--|  |--3--|                              
  E  E  E  E  E  E  E  E  E  E  E  E     S  H         E.   E  E   
--------------------------------------|--------------------------|
--5--3--------------------------------|--------------------------|
--------5--4--2--0--4--2--------------|--------------------------|
--------------------------5--4--2-----|--------------------------|
-----------------------------------5--|--5s-7~--------L---10--7--|
--------------------------------------|--------------------------|


  Q      E  H         E     E.   E  E.  S  E  E.  E   
-------------------------|---------------------------|
-------------------------|---------------------------|
-------------------------|---------------------------|
-------------------------|---------------------------|
--9b----10--5~--------5--|--5s---2--3---3s-5--3---2--|
-------------------------|---------------------------|


  E.  E.  E  E.   Q     S  
--------------------------|
--------------------------|
--------------------------|
--------------------------|
--------------------------|
--5---3---2--3s---9s----3-|


  |--3--| |--3--|  |--3-| |-3-| |-3-| |-3-| |-3-| |-3-|  
  S  S  S S  S  S  S  S S S S S S S S S S S S S S S S S  
--------------------------------------------------------|
------------------------------------------------------7-|
----------------------------------4-5-7-5-4-------------|
----------4h-5h-7p-5p-4---------------------7-5-4-5-7---|
------------------------7-5-3-5-7-----------------------|
--3h-5h-7-----------------------------------------------|


  |--3-| |-3-| |-3-| |--3-| |--3-| |--3-|  |-3-| |-3-|                         
  S  S S S S S S S S S S  S S S  S S S  S  S S S S S S    H.            Q      
---------------------7-8-10-8-7--------10b-L-L-L-L-L-L-|--L-------------------|
--8-10-8-7----------------------10-8-7-----------------|---------------10b----|
-----------9-7-5-7-9-----------------------------------|----------------------|
-------------------------------------------------------|----------------------|
-------------------------------------------------------|----------------------|
-------------------------------------------------------|----------------------|


  H        E  E  Q        E  Q.     Q    Q       Q.     E  E  E  E  E   
-----------5--7--7b----|--L--7----------------|------------------------|
--L--------------------|------------8---------|---------8--7-----------|
-----------------------|-----------------7----|--L------------9--8--9--|
-----------------------|----------------------|------------------------|
-----------------------|----------------------|------------------------|
-----------------------|----------------------|------------------------|


  E  E   E  E  E  E   E.  S    E  E   E.  E.   E   Q        W                   
--------------------------7-|--L--8--11---8---11--12----|---L~----------------||
--7--8--10--8--7--8--10-----|---------------------------|---------------------||
----------------------------|---------------------------|---------------------||
----------------------------|---------------------------|---------------------||
----------------------------|---------------------------|---------------------||
----------------------------|---------------------------|---------------------||




Duration Legend
---------------
W - whole
H - half
Q - quarter
E - 8th
S - 16th
T - 32nd
X - 64th
. - note dotted
|-n-|  - n-tuplets


Tablature Legend
----------------
L - tied note
x - dead note
g - grace note
(n) - ghost note
> - accentuded note
NH - natural harmonic
PH - pitch harmonic
h - hammer on
p - pull off
b - bend
S - shift slide
s - legato slide
/ -  slide into from below or out of upwards
\ -  slide into from above or out of downwards
~ - vibrato
< - fade in
^ - brush up
v - brush down
            
Tabs too difficult? Try these video lessons and learn fast.


comments powered by Disqus
↑ Back to top | Tablatures and chords are parodies/interpretations of the original songs. You may use it for private study, scholarship, research or language learning purposes only