» » »

Warcry, Devorando El Corazon Tabs (ver.1)

Artists:  A B C D E F G H I J K L M N O P Q R S T U V W X Y Z # 

Devorando El Corazon Tabs (ver.1)

Warcry Tabs
 Rating:
4/5 (4 votes)
Devorando El Corazon lessons Tabs too difficult? Try these video lessons and learn fast
                                            Warcry/Devorando el corazon
                                 by Darckantony
                                     rhythm
x=palm mutin
\=skide out



Intro
e|------------------------------|
b|------------------------------|
g|----------------------9-------|x3
d|---11-----6-----7-----9-----9-|
a|---11-----6-----7-----7-----9-|
E|----9-----4-----5-----------7-|

e|--------------------------------------------|
b|--------------------------------------------|
g|----------------------9---------------------|
d|---11-----6-----7-----9-----9-----7-----11--|
a|---11-----6-----7-----7-----9-----7-----11--|
E|----9-----4-----5-----------7-----5-----9---|

Como un rayo de luz entrando en la oscuridad
en mi vida entraste tu y todo empeso a cambiar
me arropaste en tu calor y entendi que tendria frio
sin ti

Comenzamos a soñar con un mundo entre los dos una estraña comunion...
e|--------------------|
b|--------------------|
g|--------------------|x2
d|---11-11\---7-7\----|
a|---11-11\---7-7\----|
E|----9--9\---5-5\----|

entre la luna y el sol diferentes y a la vez atrapados....
e|--------------------|
b|--------------------|
g|---9-9\-------------|
d|---9-9\----9-9\-----|
a|---7-7\----9-9\-----|
E|-----------7-7\-----|

por una pasion sin fin..
e|---------------------------------|
b|---------------------------------|
g|---------------------------------|
d|---11-11\---7-7\-----------------|
a|---11-11\---7-7\-----------------|
E|----9--9\---5-5\----5-5-5-5-4-2-4|

Y a veces yo pienso que todo esto acaba mal volar tan cerca del sol solo me puede quemar 
es tarde para escapar..
e|--------------------------------------------------------------------------|
b|--------------------------------------------------------------------------|
g|-----------------7xxxxxxxxxxxxxxx----7xxxxxxxxxxxxxxx---------------------|
d|---7-7---7-7-----7xxxxxxxxxxxxxxx----7xxxxxxxxxxxxxxx---7xxxxxxxxxxxxxxxx-|
a|---7-5---7-7-----9xxxxxxxxxxxxxxx----5xxxxxxxxxxxxxxx---7xxxxxxxxxxxxxxxx-|
E|---5-5---9-9--------------------------------------------9xxxxxxxxxxxxxxxx-|

Coro
te llevo tan dentro que siento fuego en mi interior quemando, ardiendo va devorando el corazon...
e|------------------------------|
b|------------------------------|
g|----------------------9-------|x2
d|---11-----6-----7-----9-----9-|
a|---11-----6-----7-----7-----9-|
E|----9-----4-----5-----------7-|

te llevo tan dentro que siento fuego en mi interior quemando, ardiendo va devorando el corazon...
e|----------------------------------------------------|
b|----------------------------------------------------|
g|----------------------------------------9xx---------|
d|---11xxxxxx-----6xxxxxx-----7xxxxxx-----9xx-----9xx-|
a|---11xxxxxx-----6xxxxxx-----7xxxxxx-----7xx-----9xx-|
E|----9xxxxxxx----4xxxxxx-----5xxxxxx-------------7xx-|

te llevo tan dentro que siento fuego en mi interior quemando, ardiendo va devorando el 
corazon, el corazon...
e|--------------------------------------------------------------|
b|--------------------------------------------------------------|
g|----------------------------------------9xx-------------------|
d|---11xxxxxx-----6xxxxxx-----7xxxxxx-----9xx-----9xx---7---6-9-|
a|---11xxxxxx-----6xxxxxx-----7xxxxxx-----7xx-----9xx---7---6-9-|
E|----9xxxxxxx----4xxxxxx-----5xxxxxx-------------7xx---5---4-7-|

solo

e|------------------------------------------------------------------------|
b|------------------------------------------------------------------------|
g|------------------------------------------------------9x9x9x------------|x2
d|---11x11x11x-11-11--------6x6x6x-6-6----7x7x7x-7-7----9x9x9x-----9x9x9x-|
a|---11x11x11x-11-11--------6x6x6x-6-6----7x7x7x-7-7----7x7x7x-----9x9x9x-|
E|----9x-9x-9x--9--9--------4x4x4x-4-4----5x5x5x-5-5---------------7x7x7x-|


e|--------------------|
b|--------------------|
g|--------------------|x2
d|---11-11\---7-7\----|
a|---11-11\---7-7\----|
E|----9--9\---5-5\----|

e|--------------------|
b|--------------------|
g|---9-9\-------------|
d|---9-9\----9-9\-----|
a|---7-7\----9-9\-----|
E|-----------7-7\-----|

e|---------------------------------|
b|---------------------------------|
g|---------------------------------|
d|---11-11\---7-7\-----------------|
a|---11-11\---7-7\-----------------|
E|----9--9\---5-5\----5-5-5-5-4-2-4|

Y a veces yo pienso que todo esto acaba mal volar tan cerca del sol solo me puede quemar 
es tarde para escapar..
e|--------------------------------------------------------------------------|
b|--------------------------------------------------------------------------|
g|-----------------7xxxxxxxxxxxxxxx----7xxxxxxxxxxxxxxx---------------------|
d|---7-7---7-7-----7xxxxxxxxxxxxxxx----7xxxxxxxxxxxxxxx---7xxxxxxxxxxxxxxxx-|
a|---7-5---7-7-----9xxxxxxxxxxxxxxx----5xxxxxxxxxxxxxxx---7xxxxxxxxxxxxxxxx-|
E|---5-5---9-9--------------------------------------------9xxxxxxxxxxxxxxxx-|

Coro
te llevo tan dentro que siento fuego en mi interior quemando, ardiendo va devorando el corazon...
e|------------------------------|
b|------------------------------|
g|----------------------9-------|x2
d|---11-----6-----7-----9-----9-|
a|---11-----6-----7-----7-----9-|
E|----9-----4-----5-----------7-|

te llevo tan dentro que siento fuego en mi interior quemando, ardiendo va devorando el 
corazon, el corazon...
e|----------------------------------------------------|
b|----------------------------------------------------|
g|----------------------------------------9xx---------|x2
d|---11xxxxxx-----6xxxxxx-----7xxxxxx-----9xx-----9xx-|
a|---11xxxxxx-----6xxxxxx-----7xxxxxx-----7xx-----9xx-|
E|----9xxxxxxx----4xxxxxx-----5xxxxxx-------------7xx-|

e|------------------------------|
b|------------------------------|
g|----------------------9-------|x2
d|---11-----6-----7-----9-----9-|
a|---11-----6-----7-----7-----9-|
E|----9-----4-----5-----------7-|

e|----------------------------------------------------|
b|----------------------------------------------------|
g|----------------------------------------9xx---------|
d|---11xxxxxx-----6xxxxxx-----7xxxxxx-----9xx-----9xx-|
a|---11xxxxxx-----6xxxxxx-----7xxxxxx-----7xx-----9xx-|
E|----9xxxxxxx----4xxxxxx-----5xxxxxx-------------7xx-|

e|--------------------------------------------------------------|
b|--------------------------------------------------------------|
g|----------------------------------------9xx-------------------|
d|---11xxxxxx-----6xxxxxx-----7xxxxxx-----9xx-----9xx---7---6-9-|
a|---11xxxxxx-----6xxxxxx-----7xxxxxx-----7xx-----9xx---7---6-9-|
E|----9xxxxxxx----4xxxxxx-----5xxxxxx-------------7xx---5---4-7-|

Outro
e|------------------------------|
b|------------------------------|
g|------------------------------|
d|----11---7---11---7---9-7-6-11|
a|----11---7---11---7---9-7-6-11|
E|-----9---5----9---5---7-5-4--9|





n_n
            
Submit corrections

comments powered by Disqus
↑ Back to top | Warcry Tabs for Devorando El Corazon. Lyrics for acoustic guitar and electric guitar. Tablatures and chords are parodies/interpretations of the original songs. You may use it for private study, scholarship, research or language learning purposes only