» » »

Warbringer, Nightslasher Tabs (ver.1)

Artists:  A B C D E F G H I J K L M N O P Q R S T U V W X Y Z # 

Nightslasher Tabs (ver.1)

Warbringer Tabs
 Rating:
4/5 (4 votes)
Nightslasher lessons Tabs too difficult? Try these video lessons and learn fast
                Hello! This is tab is for one of my favourite songs: nightslasher by warbringer! It's a 
bonus track on 'War without end'. Enjoy it and check out my tab for onslaught by 
warbringer aswell please, thank you!

INTRO
E |----------------------------------------------------------|
B |----------------------------------------------------------|
G |----------------------------------------------------------|
D |-9-------9-----9---9----------------7-9-10----------------|
A |-7-7-7-7-7-7-7-7-7-7-7-7-7-7-7-9-10-----------------------|
E |----------------------------------------------------------|

E |----------------------------------------------------------|
B |----------------------------------------------------------|
G |----------------------------------------------------------|
D |-9-------9-----9---9---11--12--11--9---10-----------------|
A |-7-7-7-7-7-7-7-7-7-7---9---10--9---7---9------------------|
E |----------------------------------------------------------|
X2

VERSE
E |----------------------------------------------------------|
B |----------------------------------------------------------|
G |----------------------------------------------------------|
D |-9-------9-----9---9----------------7-9-10----------------|
A |-7-7-7-7-7-7-7-7-7-7-7-7-7-7-7-9-10-----------------------|
E |----------------------------------------------------------|
                                                             |
E |----------------------------------------------------------|
B |----------------------------------------------------------|
G |----------------------------------------------------------|
D |-9-------9-----9---9---11--12--11--9---10-----------------|
A |-7-7-7-7-7-7-7-7-7-7---9---10--9---7---9------------------|
E |----------------------------------------------------------|
X2

E |----------------------------------------------------------|
B |----------------------------------------------------------|
G |----------------------------------------------------------|
D |-5-------5-----5---5-------5-11--9-------9---7---9-------9|
A |-3-3-3-3-3-3-3-3-3-3-3-3-3-3-9---7-7-7-7-7---5---7-7-7-7-7|
E |----------------------------------------------------------|
                                                             |
E |----------------------------------------------------------|
B |----------------------------------------------------------|
G |----------------------------------------------------------|
D |-5-------5-----5---5-------7-4-------4-----4---4-----4~---|
A |-3-3-3-3-3-3-3-3-3-3-3-3-3-5-2-2-2-2-2-2-2-2-2-2-2-2-2~---|
E |----------------------------------------------------------|

INTRO
VERSE(LAST TIME DON'T PLAY THE ROOT OF THE POWER CHORDS BUT ONLY THE FIFTHS)

BRIDGE
E |----------------------------------------------------------|
B |----------------------------------------------------------|
G |----------------------------------------------------------|
D |9p5----8p4---8p4-9p5----8p4---8p4-9p5----8p4---8p4-5-4-7-5|
A |-----0-----0----------0-----0----------0-----0-----3-2-5-3|
E |----------------------------------------------------------|
X2

E |----------------------------------------------------------|
B |----------------------------------------------------------|
G |----------------------------------------------------------|
D |---------------------------------------------------5-4-7-5|
A |---------------------------------------------------3-2-5-3|
E |7p3--0-6p2-0-6p2-7p3--0-6p2-0-6p2-7p3--0-6p2-0-8p2--------|
X2

E |-7p3---7p3---7p3---7p3---8p5---8p5---8p5---8p5------------|
B |-----5-----5-----5-----5-----7-----7-----7-----7----------|
G |----------------------------------------------------------|
D |----------------------------------------------------------|
A |----------------------------------------------------------|
E |----------------------------------------------------------|
                                                             |
E |10p7--10p7--10p7--10p7--12p8--12p8--12p8--12p8------------|
B |-----8-----8-----8-----8----10----10----10----10----------|
G |----------------------------------------------------------|
D |----------------------------------------------------------|
A |----------------------------------------------------------|
E |----------------------------------------------------------|
X2


E |12p8--12p8--12p8--12p8--10p7--10p7--10p7--10p7------------|
B |----10----10----10----10-----8-----8-----8-----8----------|
G |----------------------------------------------------------|
D |----------------------------------------------------------|
A |----------------------------------------------------------|
E |----------------------------------------------------------|
                                                             |
E |-8p5---8p5---8p5---8p5---7p3---7p3---7p3---7p3------------|
B |-----7-----7-----7-----7-----5-----5-----5-----5----------|
G |----------------------------------------------------------|
D |----------------------------------------------------------|
A |----------------------------------------------------------|
E |----------------------------------------------------------|
X2

E |----------------------------------------------------------|
B |----------------------------------------------------------|
G |----------------------------------------------------------|
D |----------------------------------------------------------|
A |-2-------2-----2---2-------2-------2----------------------|
E |-0-0-0-0-0-0-0-0-0-0-0-0-0-0-0-0-0-0-0--------------------|
                                                             |
E |----------------------------------------------------------|
B |----------------------------------------------------------|
G |----------------------------------------------------------|
D |----------------------------------------------------------|
A |-2-------2-----2---2---4---5---4---2---4------------------|
E |-0-0-0-0-0-0-0-0-0-0---2---3---2---0---2------------------|
X2

E |----------------------------------------------------------|
B |----------------------------------------------------------|
G |----------------------------------------------------------|
D |-5-------5-----5---5-------5-11--9-------9---7---9-------9|
A |-3-3-3-3-3-3-3-3-3-3-3-3-3-3-9---7-7-7-7-7---5---7-7-7-7-7|
E |----------------------------------------------------------|
                                                             |
E |----------------------------------------------------------|
B |----------------------------------------------------------|
G |----------------------------------------------------------|
D |-5-------5-----5---5-------7-4-------4-----4---4-----4~---|
A |-3-3-3-3-3-3-3-3-3-3-3-3-3-5-2-2-2-2-2-2-2-2-2-2-2-2-2~---|
E |----------------------------------------------------------|

E |----------------------------------------------------------|
B |----------------------------------------------------------|
G |----------------------------------------------------------|
D |-9-------9-------9---10------10------10-12----------------|
A |-7-7-7-7-7-7-7-7-7-7-8-8-8-8-8-8-8-8-8--10----------------|
E |----------------------------------------------------------|
X4

E |----------------------------------------------------------|
B |----------------------------------------------------------|
G |----------------------------------------------------------|
D |----------------------------------------------------------|
A |-9-------9-------9---10------10------10-12----------------|
E |-7-7-7-7-7-7-7-7-7-7-8-8-8-8-8-8-8-8-8--10----------------|
X3

E |----------------------------------------------------------|
B |----------------------------------------------------------|
G |----------------------------------------------------------|
D |----------------------------------------------------------|
A |-9-------9-------9---10------10------10~------------------|
E |-7-7-7-7-7-7-7-7-7-7-8-8-8-8-8-8-8-8-8~-------------------|

NOW REPEAT FROM BRIDGE (EXCEPT FOR THE LAST RIFF, AND IN THE END THE RIFF BEFORE IS 
PLAYED WITH 7'S ON THE A STRING INSTEAD OF 0'S ON THE E STRING)

E |----------------------------------------------------------|
B |----------------------------------------------------------|
G |----------------------------------------------------------|
D |-9-------9-----9---9---11--12--11--9---10-----------------|
A |-7-7-7-7-7-7-7-7-7-7---9---10--9---7---9------------------|
E |----------------------------------------------------------|
X4
(LAST TIME, PLAY ONLY THE FIFTHS OF THE POWERCHORDS, SO DON'T PLAY THE ROOT NOTE)
            
Submit corrections

comments powered by Disqus
↑ Back to top | Warbringer Tabs for Nightslasher. Lyrics for acoustic guitar and electric guitar. Tablatures and chords are parodies/interpretations of the original songs. You may use it for private study, scholarship, research or language learning purposes only