» » »

At The Crack Of Doom Tabs (ver.2)

Artists:  A B C D E F G H I J K L M N O P Q R S T U V W X Y Z # 

At The Crack Of Doom Tabs (ver.2)

Warbringer
Rating:
1/5 (1 vote)

Hard to play? Try these video lessons and learn fast.
                (Intro)


--------------------------------------------|
--------------------------------------------|
-----------5--4--3-----------5--4--3--6-----|
--------5------------------5----------------|
--3--6---------------3--6-------------------|
--------------------------------------------|


--------------------------------------------|
--------------------------------------------|
--------------------------------------------|
-------------3333366665555------------------|
-------5/8-7--------------------------------|
00000--3/6-5--------------------------------|
            
Hard to play? Try these video lessons and learn fast. | Correct




comments powered by Disqus
↑ Back to top | Tablatures and chords are parodies/interpretations of the original songs. You may use it for private study, scholarship, research or language learning purposes only