» » »

Satisfied Tabs (ver.2)

Artists:  A B C D E F G H I J K L M N O P Q R S T U V W X Y Z # 

Satisfied Tabs (ver.2)

War
Rating:
0/5 (0 votes)

Hard to play? Try these video lessons and learn fast.
                (/) Slide Up  (\) Slide Down  (h) Hammer On  (p) Pull Off  (b) Bend (r) Release (v) Vibrato

INTRO

E|----------------------------------------------------------------------|
B|----------------------------------------------------------------------|
G|--------5--4--------5--4--0h2p0-----0-----0--2--------0--2-------2p0--|
D|---------------------------------2--------------------------0h2-------|
A|--0--0--------0--0---------------------3--------3--3------------------|
E|----------------------------------------------------------------------|

E|---------------------------------------------------------------|
B|------------------------------------------------------------5--|
G|--------5--4--------5--4--0h2p0-----0-----0--2--------0--2--5--|
D|---------------------------------2-----------------------------|
A|--0--0--------0--0---------------------3--------3--3--------3--|
E|---------------------------------------------------------------|

VERSE

E|-----------------------------|
B|--------------------------5--|
G|--------------------------5--|
D|--7--7--3--3--7--7--3--3-----|
A|--7--7--3--3--7--7--3--3--3--|
E|--5--7--1--3--5--7--1--3-----|

CHORUS

E|--------------------------|
B|--------------------------|
G|--5-----5-----5-----5-----|
D|--5--5--5--5--5--5--5--3--|
A|--3--5--3--5--3--5--3--3--|
E|-----3-----3-----3-----1--|
            
Hard to play? Try these video lessons and learn fast. | Correct




comments powered by Disqus
↑ Back to top | Tablatures and chords are parodies/interpretations of the original songs. You may use it for private study, scholarship, research or language learning purposes only