>
 >
 >
Satisfied

Satisfied Guitar Tabs

War - Satisfied chords, tabs, tablatures, lyrics

Guitar lessons | Add/correct | Request | Top 50 tabs Artists:  A B C D E F G H I J K L M N O P Q R S T U V W X Y Z 0-9

Satisfied Guitar Tabs – War

CD, Sheet music, Poster

Do you like Satisfied? Share with your friends now
Bass TabsTabsTabs v2
THE WAR - SATISFIED


This is just part of the song, I will have the rest up after i figure it out.
For the intro, the tuning is B,A,D,G,B,E (Can be played in standard tuning but 
it is tuned as above)

GUITAR 1 INTRO: (Played twice on guitar)

E------------------------------------------------------------------------|
B------------------------------------------------------------------------|
G------------------------------------------------------------------------|
D------------------------------------------------------------------------|
A------------------------------------------------------------------------|
B-12-12-12--777-8888888888-555-777-0000000000----------------------------|
                                                                          X2
E------------------------------------------------------------------------|
B------------------------------------------------------------------------|
G------------------------------------------------------------------------|
D------------------------------------------------------------------------|
A------------------------------------------------------------------------|
B-12-12-12--777-8888888888-555-777/12-12-14-14-15-15-15------------------|

GUITAR 2 INTRO: (PLAYS AFTER GUITAR 1 GOES THROUGH INTRO ONCE)

E------------------------------------------------------------------------|
B----3---2-3-3333----3---2---2---3------3---2/3-3333---3---2/8-8-7-10-7--|
G--4---4-----------4---4---2---2---2--4---4----------4---4---------------|
D------------------------------------------------------------------------|
A------------------------------------------------------------------------|
B------------------------------------------------------------------------|

VERSE:

E-------------------------10-10-10-10-10-10-10-10-------------------------|
B-12-12-12-12-12-12-12-12-12-12-12-12-12-12-12-12-12-12-12-12-12-12-12-12-|
G-11-11-11-11-11-11-11-11-11-11-11-11-11-11-11-11-12-12-12-12-12-12-12-12-|
D-------------------------------------------------^-----------------------|
A-------------------------------------------------^-----------------------|
B-------------------------------------------------^-----------------------|
                                                  ^
              (Last time go to next part of verse)^

E-9--9--9--9--9--9--9--9--------------10-10-10-10-10-10-10-10-10---------|
B-12-12-12-12-12-12-12-12-10-10-10-10-10-10-10-10-12-12-12-12-12---------|
G-12-12-12-12-12-12-12-12-11-11-11-11-11-11-11-11-12-12-12-12-12---------|
D------------------------------------------------------------------------|
A------------------------------------------------------------------------|
B------------------------------------------------------------------------|

2nd PART OF VERSE: (Drop D Tuning)

E------------------------------------------------------------------------|
B-3->->->->->-------------------------3->->->->->------------------------|
G-2->->->->->-------------------------2->->->->->------------------------|
D-0->->->->->-2->->->->->-5->->->->->-0->->->->->-----0---0h2/4----------|
A-0->->->->->-2->->->->->-5->->->->->-0->->->->->-0h2---0----------------|
D-0->->->->->-2->->->->->-5->->->->->-0->->->->->------------------------|

ORDER FOR GUITAR 1:
1.INTRO
2.INTRO
3.VERSE 1
4.VERSE 1 (HALF WAY THROUGH)
5.VERSE 2
6.VERSE 2

ORDER FOR GUITAR 2:
1.
2.GUITAR 2 INTRO
3.VERSE 1
4.VERSE 1 (HALF WAY THROUGH)
5.VERSE 2
6.VERSE 2





Comments


Popular War tabs & chords
Lowrider Bass Tabs
Spill The Wine Bass Tabs
Cisco Kid Chords
Summer Chords
Why Can't We Be Friends? 1 Chords
Low Rider Tabs
Low Rider (Intro) Tabs
Me And Baby Brother Tabs
Satisfied 1 Tabs
Spill The Wine Tabs


Song lyrics



↑ Back to top | Tablatures and chords are parodies/interpretations of the original songs. You may use it for private study, scholarship, research or language learning purposes only
© 2014 AZChords.com Contact us | Privacy policy | DMCA | Add/correct tabs | Request tabs | Top 50 tabs