» » »

Low Rider Tabs (ver.2)

Artists:  A B C D E F G H I J K L M N O P Q R S T U V W X Y Z # 

Low Rider Tabs (ver.2)

War
Rating:
0/5 (0 votes)

Hard to play? Try these video lessons and learn fast.
                (Correct)
War-Low Rider
arranged by alex fein


simple and cool bass line:

G-------------------------------------
D----------0-3-0-3-0-3-5--------------
A------1-3----------------------------
E--1-3--------------------------------

easy guitar at chorus:

e--7-7-7-7-7-8-10---7-8-7-------------
B-----------------8-------8----------- 
G-------------------------------------<--2x
D-------------------------------------
A-------------------------------------
E-------------------------------------

e-------------------------------------
B------------------------------------8
G-10-10-10-10-10---10-10-10-10-10-10--
D-------------------------------------
A-------------------------------------
E-------------------------------------

thats it! very simple but sounds great
            
Hard to play? Try these video lessons and learn fast. | Correct




comments powered by Disqus
↑ Back to top | Tablatures and chords are parodies/interpretations of the original songs. You may use it for private study, scholarship, research or language learning purposes only